  0
SECTION
  2
ENTITIES
  0
LINE
  8
0
 10
-11.148700
 20
-5.000000
 11
-10.606600
 21
-5.606600
  0
LINE
  8
0
 10
-10.606600
 20
-5.606600
 11
-10.000000
 21
-6.148700
  0
LINE
  8
0
 10
-10.000000
 20
-6.148700
 11
-10.000000
 21
-5.000000
  0
LINE
  8
0
 10
-10.000000
 20
-5.000000
 11
-11.148700
 21
-5.000000
  0
LINE
  8
0
 10
-10.000000
 20
-1.200000
 11
-13.642220
 21
-1.200000
  0
LINE
  8
0
 10
-13.642220
 20
-1.200000
 11
-13.514540
 21
-1.508260
  0
LINE
  8
0
 10
-13.514540
 20
-1.508260
 11
-13.107700
 21
-2.244360
  0
LINE
  8
0
 10
-13.107700
 20
-2.244360
 11
-10.000000
 21
-1.200000
  0
LINE
  8
0
 10
-10.000000
 20
-5.000000
 11
-12.700860
 21
-2.980480
  0
LINE
  8
0
 10
-12.700860
 20
-2.980480
 11
-11.727480
 21
-4.352340
  0
LINE
  8
0
 10
-11.727480
 20
-4.352340
 11
-11.148700
 21
-5.000000
  0
LINE
  8
0
 10
-11.148700
 20
-5.000000
 11
-10.000000
 21
-5.000000
  0
LINE
  8
0
 10
-12.700860
 20
-2.980480
 11
-10.000000
 21
-5.000000
  0
LINE
  8
0
 10
-10.000000
 20
-5.000000
 11
-10.000000
 21
-1.200000
  0
LINE
  8
0
 10
-10.000000
 20
-1.200000
 11
-13.107700
 21
-2.244360
  0
LINE
  8
0
 10
-13.107700
 20
-2.244360
 11
-12.700860
 21
-2.980480
  0
LINE
  8
0
 10
-14.905680
 20
3.320540
 11
-10.000000
 21
-1.200000
  0
LINE
  8
0
 10
-10.000000
 20
-1.200000
 11
-9.876880
 21
3.435660
  0
LINE
  8
0
 10
-9.876880
 20
3.435660
 11
-9.938440
 21
4.217840
  0
LINE
  8
0
 10
-9.938440
 20
4.217840
 11
-14.905680
 21
3.320540
  0
LINE
  8
0
 10
-10.000000
 20
-1.200000
 11
-14.905680
 21
3.320540
  0
LINE
  8
0
 10
-14.905680
 20
3.320540
 11
-14.623920
 21
1.662180
  0
LINE
  8
0
 10
-14.623920
 20
1.662180
 11
-14.158240
 21
0.045820
  0
LINE
  8
0
 10
-14.158240
 20
0.045820
 11
-10.000000
 21
-1.200000
  0
LINE
  8
0
 10
-13.642220
 20
-1.200000
 11
-10.000000
 21
-1.200000
  0
LINE
  8
0
 10
-10.000000
 20
-1.200000
 11
-14.158240
 21
0.045820
  0
LINE
  8
0
 10
-14.158240
 20
0.045820
 11
-13.900240
 21
-0.577080
  0
LINE
  8
0
 10
-13.900240
 20
-0.577080
 11
-13.642220
 21
-1.200000
  0
LINE
  8
0
 10
-14.623920
 20
8.337820
 11
-10.000000
 21
5.000000
  0
LINE
  8
0
 10
-10.000000
 20
5.000000
 11
-9.938440
 21
5.782160
  0
LINE
  8
0
 10
-9.938440
 20
5.782160
 11
-9.876880
 21
6.564340
  0
LINE
  8
0
 10
-9.876880
 20
6.564340
 11
-14.623920
 21
8.337820
  0
LINE
  8
0
 10
-15.000000
 20
5.000000
 11
-10.000000
 21
5.000000
  0
LINE
  8
0
 10
-10.000000
 20
5.000000
 11
-14.623920
 21
8.337820
  0
LINE
  8
0
 10
-14.623920
 20
8.337820
 11
-14.905680
 21
6.679460
  0
LINE
  8
0
 10
-14.905680
 20
6.679460
 11
-15.000000
 21
5.000000
  0
LINE
  8
0
 10
-10.000000
 20
8.780480
 11
-10.000000
 21
15.000000
  0
LINE
  8
0
 10
-10.000000
 20
15.000000
 11
-11.148700
 21
15.000000
  0
LINE
  8
0
 10
-11.148700
 20
15.000000
 11
-11.438080
 21
14.676160
  0
LINE
  8
0
 10
-11.438080
 20
14.676160
 11
-10.000000
 21
8.780480
  0
LINE
  8
0
 10
-13.514540
 20
11.508260
 11
-14.158240
 21
9.954180
  0
LINE
  8
0
 10
-14.158240
 20
9.954180
 11
-14.496380
 21
8.780480
  0
LINE
  8
0
 10
-14.496380
 20
8.780480
 11
-10.000000
 21
8.780480
  0
LINE
  8
0
 10
-10.000000
 20
8.780480
 11
-13.514540
 21
11.508260
  0
LINE
  8
0
 10
-10.000000
 20
8.780480
 11
-11.438080
 21
14.676160
  0
LINE
  8
0
 10
-11.438080
 20
14.676160
 11
-11.727480
 21
14.352340
  0
LINE
  8
0
 10
-11.727480
 20
14.352340
 11
-12.700860
 21
12.980480
  0
LINE
  8
0
 10
-12.700860
 20
12.980480
 11
-10.000000
 21
8.780480
  0
LINE
  8
0
 10
-13.514540
 20
11.508260
 11
-10.000000
 21
8.780480
  0
LINE
  8
0
 10
-10.000000
 20
8.780480
 11
-12.700860
 21
12.980480
  0
LINE
  8
0
 10
-12.700860
 20
12.980480
 11
-13.107700
 21
12.244360
  0
LINE
  8
0
 10
-13.107700
 20
12.244360
 11
-13.514540
 21
11.508260
  0
LINE
  8
0
 10
-10.000000
 20
16.148700
 11
-10.606600
 21
15.606600
  0
LINE
  8
0
 10
-10.606600
 20
15.606600
 11
-11.148700
 21
15.000000
  0
LINE
  8
0
 10
-11.148700
 20
15.000000
 11
-10.000000
 21
15.000000
  0
LINE
  8
0
 10
-10.000000
 20
15.000000
 11
-10.000000
 21
16.148700
  0
LINE
  8
0
 10
-5.000000
 20
-5.000000
 11
-10.000000
 21
-5.000000
  0
LINE
  8
0
 10
-10.000000
 20
-5.000000
 11
-10.000000
 21
-6.148700
  0
LINE
  8
0
 10
-10.000000
 20
-6.148700
 11
-9.352340
 21
-6.727480
  0
LINE
  8
0
 10
-9.352340
 20
-6.727480
 11
-5.000000
 21
-5.000000
  0
LINE
  8
0
 10
-5.000000
 20
-5.000000
 11
-9.352340
 21
-6.727480
  0
LINE
  8
0
 10
-9.352340
 20
-6.727480
 11
-7.980480
 21
-7.700860
  0
LINE
  8
0
 10
-7.980480
 20
-7.700860
 11
-6.508260
 21
-8.514540
  0
LINE
  8
0
 10
-6.508260
 20
-8.514540
 11
-5.000000
 21
-5.000000
  0
LINE
  8
0
 10
-5.000000
 20
-9.139260
 11
-5.000000
 21
-5.000000
  0
LINE
  8
0
 10
-5.000000
 20
-5.000000
 11
-6.508260
 21
-8.514540
  0
LINE
  8
0
 10
-6.508260
 20
-8.514540
 11
-5.754120
 21
-8.826900
  0
LINE
  8
0
 10
-5.754120
 20
-8.826900
 11
-5.000000
 21
-9.139260
  0
LINE
  8
0
 10
-10.000000
 20
-5.000000
 11
-5.000000
 21
-5.000000
  0
LINE
  8
0
 10
-5.000000
 20
-5.000000
 11
-7.071060
 21
-2.071060
  0
LINE
  8
0
 10
-7.071060
 20
-2.071060
 11
-7.443040
 21
-1.635520
  0
LINE
  8
0
 10
-7.443040
 20
-1.635520
 11
-10.000000
 21
-5.000000
  0
LINE
  8
0
 10
-5.000000
 20
-5.000000
 11
-5.000000
 21
-3.628120
  0
LINE
  8
0
 10
-5.000000
 20
-3.628120
 11
-5.438920
 21
-3.359140
  0
LINE
  8
0
 10
-5.438920
 20
-3.359140
 11
-5.877860
 21
-3.090160
  0
LINE
  8
0
 10
-5.877860
 20
-3.090160
 11
-5.000000
 21
-5.000000
  0
LINE
  8
0
 10
-10.000000
 20
-1.200000
 11
-10.000000
 21
-5.000000
  0
LINE
  8
0
 10
-10.000000
 20
-5.000000
 11
-7.443040
 21
-1.635520
  0
LINE
  8
0
 10
-7.443040
 20
-1.635520
 11
-7.815020
 21
-1.200000
  0
LINE
  8
0
 10
-7.815020
 20
-1.200000
 11
-10.000000
 21
-1.200000
  0
LINE
  8
0
 10
-5.000000
 20
-5.000000
 11
-5.877860
 21
-3.090160
  0
LINE
  8
0
 10
-5.877860
 20
-3.090160
 11
-6.474460
 21
-2.580600
  0
LINE
  8
0
 10
-6.474460
 20
-2.580600
 11
-7.071060
 21
-2.071060
  0
LINE
  8
0
 10
-7.071060
 20
-2.071060
 11
-5.000000
 21
-5.000000
  0
LINE
  8
0
 10
-10.000000
 20
-1.200000
 11
-7.815020
 21
-1.200000
  0
LINE
  8
0
 10
-7.815020
 20
-1.200000
 11
-7.952600
 21
-1.038920
  0
LINE
  8
0
 10
-7.952600
 20
-1.038920
 11
-8.090160
 21
-0.877860
  0
LINE
  8
0
 10
-8.090160
 20
-0.877860
 11
-10.000000
 21
-1.200000
  0
LINE
  8
0
 10
-10.000000
 20
5.000000
 11
-15.000000
 21
5.000000
  0
LINE
  8
0
 10
-15.000000
 20
5.000000
 11
-14.905680
 21
3.320540
  0
LINE
  8
0
 10
-14.905680
 20
3.320540
 11
-9.938440
 21
4.217840
  0
LINE
  8
0
 10
-9.938440
 20
4.217840
 11
-10.000000
 21
5.000000
  0
LINE
  8
0
 10
-10.000000
 20
-1.200000
 11
-9.510560
 21
1.909840
  0
LINE
  8
0
 10
-9.510560
 20
1.909840
 11
-9.693720
 21
2.672760
  0
LINE
  8
0
 10
-9.693720
 20
2.672760
 11
-9.876880
 21
3.435660
  0
LINE
  8
0
 10
-9.876880
 20
3.435660
 11
-10.000000
 21
-1.200000
  0
LINE
  8
0
 10
-10.000000
 20
-1.200000
 11
-8.910060
 21
0.460100
  0
LINE
  8
0
 10
-8.910060
 20
0.460100
 11
-9.210320
 21
1.184960
  0
LINE
  8
0
 10
-9.210320
 20
1.184960
 11
-9.510560
 21
1.909840
  0
LINE
  8
0
 10
-9.510560
 20
1.909840
 11
-10.000000
 21
-1.200000
  0
LINE
  8
0
 10
-10.000000
 20
-1.200000
 11
-8.090160
 21
-0.877860
  0
LINE
  8
0
 10
-8.090160
 20
-0.877860
 11
-8.500120
 21
-0.208880
  0
LINE
  8
0
 10
-8.500120
 20
-0.208880
 11
-8.910060
 21
0.460100
  0
LINE
  8
0
 10
-8.910060
 20
0.460100
 11
-10.000000
 21
-1.200000
  0
LINE
  8
0
 10
-10.000000
 20
8.780480
 11
-9.510560
 21
8.090160
  0
LINE
  8
0
 10
-9.510560
 20
8.090160
 11
-9.367600
 21
8.435320
  0
LINE
  8
0
 10
-9.367600
 20
8.435320
 11
-9.224620
 21
8.780480
  0
LINE
  8
0
 10
-9.224620
 20
8.780480
 11
-10.000000
 21
8.780480
  0
LINE
  8
0
 10
-10.000000
 20
8.780480
 11
-9.876880
 21
6.564340
  0
LINE
  8
0
 10
-9.876880
 20
6.564340
 11
-9.693720
 21
7.327240
  0
LINE
  8
0
 10
-9.693720
 20
7.327240
 11
-9.510560
 21
8.090160
  0
LINE
  8
0
 10
-9.510560
 20
8.090160
 11
-10.000000
 21
8.780480
  0
LINE
  8
0
 10
-10.000000
 20
8.780480
 11
-14.496380
 21
8.780480
  0
LINE
  8
0
 10
-14.496380
 20
8.780480
 11
-14.623920
 21
8.337820
  0
LINE
  8
0
 10
-14.623920
 20
8.337820
 11
-9.876880
 21
6.564340
  0
LINE
  8
0
 10
-9.876880
 20
6.564340
 11
-10.000000
 21
8.780480
  0
LINE
  8
0
 10
-10.000000
 20
15.000000
 11
-10.000000
 21
8.780480
  0
LINE
  8
0
 10
-10.000000
 20
8.780480
 11
-8.090160
 21
10.877860
  0
LINE
  8
0
 10
-8.090160
 20
10.877860
 11
-7.580600
 21
11.474460
  0
LINE
  8
0
 10
-7.580600
 20
11.474460
 11
-10.000000
 21
15.000000
  0
LINE
  8
0
 10
-10.000000
 20
8.780480
 11
-9.224620
 21
8.780480
  0
LINE
  8
0
 10
-9.224620
 20
8.780480
 11
-9.067340
 21
9.160200
  0
LINE
  8
0
 10
-9.067340
 20
9.160200
 11
-8.910060
 21
9.539900
  0
LINE
  8
0
 10
-8.910060
 20
9.539900
 11
-10.000000
 21
8.780480
  0
LINE
  8
0
 10
-5.000000
 20
15.000000
 11
-5.877860
 21
13.090160
  0
LINE
  8
0
 10
-5.877860
 20
13.090160
 11
-5.438920
 21
13.359140
  0
LINE
  8
0
 10
-5.438920
 20
13.359140
 11
-5.000000
 21
13.628120
  0
LINE
  8
0
 10
-5.000000
 20
13.628120
 11
-5.000000
 21
15.000000
  0
LINE
  8
0
 10
-10.000000
 20
8.780480
 11
-8.910060
 21
9.539900
  0
LINE
  8
0
 10
-8.910060
 20
9.539900
 11
-8.500120
 21
10.208880
  0
LINE
  8
0
 10
-8.500120
 20
10.208880
 11
-8.090160
 21
10.877860
  0
LINE
  8
0
 10
-8.090160
 20
10.877860
 11
-10.000000
 21
8.780480
  0
LINE
  8
0
 10
-7.071060
 20
12.071060
 11
-5.000000
 21
15.000000
  0
LINE
  8
0
 10
-5.000000
 20
15.000000
 11
-10.000000
 21
15.000000
  0
LINE
  8
0
 10
-10.000000
 20
15.000000
 11
-7.580600
 21
11.474460
  0
LINE
  8
0
 10
-7.580600
 20
11.474460
 11
-7.071060
 21
12.071060
  0
LINE
  8
0
 10
-5.000000
 20
15.000000
 11
-7.071060
 21
12.071060
  0
LINE
  8
0
 10
-7.071060
 20
12.071060
 11
-6.474460
 21
12.580600
  0
LINE
  8
0
 10
-6.474460
 20
12.580600
 11
-5.877860
 21
13.090160
  0
LINE
  8
0
 10
-5.877860
 20
13.090160
 11
-5.000000
 21
15.000000
  0
LINE
  8
0
 10
-5.000000
 20
15.000000
 11
-5.000000
 21
19.139260
  0
LINE
  8
0
 10
-5.000000
 20
19.139260
 11
-6.508260
 21
18.514540
  0
LINE
  8
0
 10
-6.508260
 20
18.514540
 11
-7.244360
 21
18.107700
  0
LINE
  8
0
 10
-7.244360
 20
18.107700
 11
-5.000000
 21
15.000000
  0
LINE
  8
0
 10
-10.000000
 20
15.000000
 11
-5.000000
 21
15.000000
  0
LINE
  8
0
 10
-5.000000
 20
15.000000
 11
-9.352340
 21
16.727480
  0
LINE
  8
0
 10
-9.352340
 20
16.727480
 11
-10.000000
 21
16.148700
  0
LINE
  8
0
 10
-10.000000
 20
16.148700
 11
-10.000000
 21
15.000000
  0
LINE
  8
0
 10
-7.980480
 20
17.700860
 11
-9.352340
 21
16.727480
  0
LINE
  8
0
 10
-9.352340
 20
16.727480
 11
-5.000000
 21
15.000000
  0
LINE
  8
0
 10
-5.000000
 20
15.000000
 11
-7.244360
 21
18.107700
  0
LINE
  8
0
 10
-7.244360
 20
18.107700
 11
-7.980480
 21
17.700860
  0
LINE
  8
0
 10
-4.954180
 20
-9.158240
 11
0.000000
 21
-5.000000
  0
LINE
  8
0
 10
0.000000
 20
-5.000000
 11
-0.782160
 21
-4.938440
  0
LINE
  8
0
 10
-0.782160
 20
-4.938440
 11
-1.564340
 21
-4.876880
  0
LINE
  8
0
 10
-1.564340
 20
-4.876880
 11
-4.954180
 21
-9.158240
  0
LINE
  8
0
 10
0.000000
 20
-10.000000
 11
0.000000
 21
-5.000000
  0
LINE
  8
0
 10
0.000000
 20
-5.000000
 11
-3.337820
 21
-9.623920
  0
LINE
  8
0
 10
-3.337820
 20
-9.623920
 11
-1.679460
 21
-9.905680
  0
LINE
  8
0
 10
-1.679460
 20
-9.905680
 11
0.000000
 21
-10.000000
  0
LINE
  8
0
 10
-3.337820
 20
-9.623920
 11
0.000000
 21
-5.000000
  0
LINE
  8
0
 10
0.000000
 20
-5.000000
 11
-4.954180
 21
-9.158240
  0
LINE
  8
0
 10
-4.954180
 20
-9.158240
 11
-4.146000
 21
-9.391080
  0
LINE
  8
0
 10
-4.146000
 20
-9.391080
 11
-3.337820
 21
-9.623920
  0
LINE
  8
0
 10
-5.000000
 20
-5.000000
 11
-4.539900
 21
-3.910060
  0
LINE
  8
0
 10
-4.539900
 20
-3.910060
 11
-4.769960
 21
-3.769080
  0
LINE
  8
0
 10
-4.769960
 20
-3.769080
 11
-5.000000
 21
-3.628120
  0
LINE
  8
0
 10
-5.000000
 20
-3.628120
 11
-5.000000
 21
-5.000000
  0
LINE
  8
0
 10
-5.000000
 20
-5.000000
 11
-3.090160
 21
-4.510560
  0
LINE
  8
0
 10
-3.090160
 20
-4.510560
 11
-3.815040
 21
-4.210320
  0
LINE
  8
0
 10
-3.815040
 20
-4.210320
 11
-4.539900
 21
-3.910060
  0
LINE
  8
0
 10
-4.539900
 20
-3.910060
 11
-5.000000
 21
-5.000000
  0
LINE
  8
0
 10
-4.954180
 20
-9.158240
 11
-1.564340
 21
-4.876880
  0
LINE
  8
0
 10
-1.564340
 20
-4.876880
 11
-2.327240
 21
-4.693720
  0
LINE
  8
0
 10
-2.327240
 20
-4.693720
 11
-3.090160
 21
-4.510560
  0
LINE
  8
0
 10
-3.090160
 20
-4.510560
 11
-4.954180
 21
-9.158240
  0
LINE
  8
0
 10
-5.000000
 20
-5.000000
 11
-5.000000
 21
-9.139260
  0
LINE
  8
0
 10
-5.000000
 20
-9.139260
 11
-4.954180
 21
-9.158240
  0
LINE
  8
0
 10
-4.954180
 20
-9.158240
 11
-3.090160
 21
-4.510560
  0
LINE
  8
0
 10
-3.090160
 20
-4.510560
 11
-5.000000
 21
-5.000000
  0
LINE
  8
0
 10
-5.000000
 20
15.000000
 11
-5.000000
 21
13.628120
  0
LINE
  8
0
 10
-5.000000
 20
13.628120
 11
-4.769960
 21
13.769080
  0
LINE
  8
0
 10
-4.769960
 20
13.769080
 11
-4.539900
 21
13.910060
  0
LINE
  8
0
 10
-4.539900
 20
13.910060
 11
-5.000000
 21
15.000000
  0
LINE
  8
0
 10
-5.000000
 20
15.000000
 11
-4.539900
 21
13.910060
  0
LINE
  8
0
 10
-4.539900
 20
13.910060
 11
-3.815040
 21
14.210320
  0
LINE
  8
0
 10
-3.815040
 20
14.210320
 11
-3.090160
 21
14.510560
  0
LINE
  8
0
 10
-3.090160
 20
14.510560
 11
-5.000000
 21
15.000000
  0
LINE
  8
0
 10
-5.000000
 20
15.000000
 11
-3.090160
 21
14.510560
  0
LINE
  8
0
 10
-3.090160
 20
14.510560
 11
-2.327240
 21
14.693720
  0
LINE
  8
0
 10
-2.327240
 20
14.693720
 11
-1.564340
 21
14.876880
  0
LINE
  8
0
 10
-1.564340
 20
14.876880
 11
-5.000000
 21
15.000000
  0
LINE
  8
0
 10
0.000000
 20
15.000000
 11
0.000000
 21
20.000000
  0
LINE
  8
0
 10
0.000000
 20
20.000000
 11
-1.679460
 21
19.905680
  0
LINE
  8
0
 10
-1.679460
 20
19.905680
 11
-3.337820
 21
19.623920
  0
LINE
  8
0
 10
-3.337820
 20
19.623920
 11
0.000000
 21
15.000000
  0
LINE
  8
0
 10
-5.000000
 20
19.139260
 11
-5.000000
 21
15.000000
  0
LINE
  8
0
 10
-5.000000
 20
15.000000
 11
-1.564340
 21
14.876880
  0
LINE
  8
0
 10
-1.564340
 20
14.876880
 11
-0.782160
 21
14.938440
  0
LINE
  8
0
 10
-0.782160
 20
14.938440
 11
-5.000000
 21
19.139260
  0
LINE
  8
0
 10
0.000000
 20
15.000000
 11
-3.337820
 21
19.623920
  0
LINE
  8
0
 10
-3.337820
 20
19.623920
 11
-4.954180
 21
19.158240
  0
LINE
  8
0
 10
-4.954180
 20
19.158240
 11
-4.977080
 21
19.148760
  0
LINE
  8
0
 10
-4.977080
 20
19.148760
 11
0.000000
 21
15.000000
  0
LINE
  8
0
 10
-5.000000
 20
19.139260
 11
-0.782160
 21
14.938440
  0
LINE
  8
0
 10
-0.782160
 20
14.938440
 11
0.000000
 21
15.000000
  0
LINE
  8
0
 10
0.000000
 20
15.000000
 11
-4.977080
 21
19.148760
  0
LINE
  8
0
 10
-4.977080
 20
19.148760
 11
-5.000000
 21
19.139260
  0
LINE
  8
0
 10
5.000000
 20
-10.000000
 11
5.000000
 21
-5.000000
  0
LINE
  8
0
 10
5.000000
 20
-5.000000
 11
1.564340
 21
-4.876880
  0
LINE
  8
0
 10
1.564340
 20
-4.876880
 11
0.782160
 21
-4.938440
  0
LINE
  8
0
 10
0.782160
 20
-4.938440
 11
5.000000
 21
-10.000000
  0
LINE
  8
0
 10
5.000000
 20
-5.000000
 11
5.000000
 21
-3.628120
  0
LINE
  8
0
 10
5.000000
 20
-3.628120
 11
4.769960
 21
-3.769080
  0
LINE
  8
0
 10
4.769960
 20
-3.769080
 11
4.539900
 21
-3.910060
  0
LINE
  8
0
 10
4.539900
 20
-3.910060
 11
5.000000
 21
-5.000000
  0
LINE
  8
0
 10
5.000000
 20
-5.000000
 11
4.539900
 21
-3.910060
  0
LINE
  8
0
 10
4.539900
 20
-3.910060
 11
3.815040
 21
-4.210320
  0
LINE
  8
0
 10
3.815040
 20
-4.210320
 11
3.090160
 21
-4.510560
  0
LINE
  8
0
 10
3.090160
 20
-4.510560
 11
5.000000
 21
-5.000000
  0
LINE
  8
0
 10
5.000000
 20
-5.000000
 11
3.090160
 21
-4.510560
  0
LINE
  8
0
 10
3.090160
 20
-4.510560
 11
2.327240
 21
-4.693720
  0
LINE
  8
0
 10
2.327240
 20
-4.693720
 11
1.564340
 21
-4.876880
  0
LINE
  8
0
 10
1.564340
 20
-4.876880
 11
5.000000
 21
-5.000000
  0
LINE
  8
0
 10
0.000000
 20
-5.000000
 11
0.000000
 21
-10.000000
  0
LINE
  8
0
 10
0.000000
 20
-10.000000
 11
5.000000
 21
-10.000000
  0
LINE
  8
0
 10
5.000000
 20
-10.000000
 11
0.782160
 21
-4.938440
  0
LINE
  8
0
 10
0.782160
 20
-4.938440
 11
0.000000
 21
-5.000000
  0
LINE
  8
0
 10
5.000000
 20
15.000000
 11
4.539900
 21
13.910060
  0
LINE
  8
0
 10
4.539900
 20
13.910060
 11
4.769960
 21
13.769080
  0
LINE
  8
0
 10
4.769960
 20
13.769080
 11
5.000000
 21
13.628120
  0
LINE
  8
0
 10
5.000000
 20
13.628120
 11
5.000000
 21
15.000000
  0
LINE
  8
0
 10
5.000000
 20
15.000000
 11
3.090160
 21
14.510560
  0
LINE
  8
0
 10
3.090160
 20
14.510560
 11
3.815040
 21
14.210320
  0
LINE
  8
0
 10
3.815040
 20
14.210320
 11
4.539900
 21
13.910060
  0
LINE
  8
0
 10
4.539900
 20
13.910060
 11
5.000000
 21
15.000000
  0
LINE
  8
0
 10
5.000000
 20
15.000000
 11
5.000000
 21
20.000000
  0
LINE
  8
0
 10
5.000000
 20
20.000000
 11
0.782160
 21
14.938440
  0
LINE
  8
0
 10
0.782160
 20
14.938440
 11
1.564340
 21
14.876880
  0
LINE
  8
0
 10
1.564340
 20
14.876880
 11
5.000000
 21
15.000000
  0
LINE
  8
0
 10
5.000000
 20
15.000000
 11
1.564340
 21
14.876880
  0
LINE
  8
0
 10
1.564340
 20
14.876880
 11
2.327240
 21
14.693720
  0
LINE
  8
0
 10
2.327240
 20
14.693720
 11
3.090160
 21
14.510560
  0
LINE
  8
0
 10
3.090160
 20
14.510560
 11
5.000000
 21
15.000000
  0
LINE
  8
0
 10
5.000000
 20
20.000000
 11
0.000000
 21
20.000000
  0
LINE
  8
0
 10
0.000000
 20
20.000000
 11
0.000000
 21
15.000000
  0
LINE
  8
0
 10
0.000000
 20
15.000000
 11
0.782160
 21
14.938440
  0
LINE
  8
0
 10
0.782160
 20
14.938440
 11
5.000000
 21
20.000000
  0
LINE
  8
0
 10
5.000000
 20
-5.000000
 11
5.000000
 21
-10.000000
  0
LINE
  8
0
 10
5.000000
 20
-10.000000
 11
10.000000
 21
-10.000000
  0
LINE
  8
0
 10
10.000000
 20
-10.000000
 11
10.000000
 21
-5.000000
  0
LINE
  8
0
 10
10.000000
 20
-5.000000
 11
5.000000
 21
-5.000000
  0
LINE
  8
0
 10
10.000000
 20
-5.000000
 11
10.000000
 21
-1.200000
  0
LINE
  8
0
 10
10.000000
 20
-1.200000
 11
7.815020
 21
-1.200000
  0
LINE
  8
0
 10
7.815020
 20
-1.200000
 11
7.443040
 21
-1.635520
  0
LINE
  8
0
 10
7.443040
 20
-1.635520
 11
10.000000
 21
-5.000000
  0
LINE
  8
0
 10
5.000000
 20
-5.000000
 11
5.877860
 21
-3.090160
  0
LINE
  8
0
 10
5.877860
 20
-3.090160
 11
5.438920
 21
-3.359140
  0
LINE
  8
0
 10
5.438920
 20
-3.359140
 11
5.000000
 21
-3.628120
  0
LINE
  8
0
 10
5.000000
 20
-3.628120
 11
5.000000
 21
-5.000000
  0
LINE
  8
0
 10
7.071060
 20
-2.071060
 11
5.000000
 21
-5.000000
  0
LINE
  8
0
 10
5.000000
 20
-5.000000
 11
10.000000
 21
-5.000000
  0
LINE
  8
0
 10
10.000000
 20
-5.000000
 11
7.443040
 21
-1.635520
  0
LINE
  8
0
 10
7.443040
 20
-1.635520
 11
7.071060
 21
-2.071060
  0
LINE
  8
0
 10
5.000000
 20
-5.000000
 11
7.071060
 21
-2.071060
  0
LINE
  8
0
 10
7.071060
 20
-2.071060
 11
6.474460
 21
-2.580600
  0
LINE
  8
0
 10
6.474460
 20
-2.580600
 11
5.877860
 21
-3.090160
  0
LINE
  8
0
 10
5.877860
 20
-3.090160
 11
5.000000
 21
-5.000000
  0
LINE
  8
0
 10
10.000000
 20
-1.200000
 11
8.090160
 21
-0.877860
  0
LINE
  8
0
 10
8.090160
 20
-0.877860
 11
7.952600
 21
-1.038920
  0
LINE
  8
0
 10
7.952600
 20
-1.038920
 11
7.815020
 21
-1.200000
  0
LINE
  8
0
 10
7.815020
 20
-1.200000
 11
10.000000
 21
-1.200000
  0
LINE
  8
0
 10
10.000000
 20
-1.200000
 11
15.000000
 21
-1.200000
  0
LINE
  8
0
 10
15.000000
 20
-1.200000
 11
9.938440
 21
4.217840
  0
LINE
  8
0
 10
9.938440
 20
4.217840
 11
9.876880
 21
3.435660
  0
LINE
  8
0
 10
9.876880
 20
3.435660
 11
10.000000
 21
-1.200000
  0
LINE
  8
0
 10
10.000000
 20
-1.200000
 11
9.876880
 21
3.435660
  0
LINE
  8
0
 10
9.876880
 20
3.435660
 11
9.693720
 21
2.672760
  0
LINE
  8
0
 10
9.693720
 20
2.672760
 11
9.510560
 21
1.909840
  0
LINE
  8
0
 10
9.510560
 20
1.909840
 11
10.000000
 21
-1.200000
  0
LINE
  8
0
 10
10.000000
 20
-1.200000
 11
9.510560
 21
1.909840
  0
LINE
  8
0
 10
9.510560
 20
1.909840
 11
9.210320
 21
1.184960
  0
LINE
  8
0
 10
9.210320
 20
1.184960
 11
8.910060
 21
0.460100
  0
LINE
  8
0
 10
8.910060
 20
0.460100
 11
10.000000
 21
-1.200000
  0
LINE
  8
0
 10
10.000000
 20
-1.200000
 11
8.910060
 21
0.460100
  0
LINE
  8
0
 10
8.910060
 20
0.460100
 11
8.500120
 21
-0.208880
  0
LINE
  8
0
 10
8.500120
 20
-0.208880
 11
8.090160
 21
-0.877860
  0
LINE
  8
0
 10
8.090160
 20
-0.877860
 11
10.000000
 21
-1.200000
  0
LINE
  8
0
 10
10.000000
 20
8.780480
 11
9.224620
 21
8.780480
  0
LINE
  8
0
 10
9.224620
 20
8.780480
 11
9.367600
 21
8.435320
  0
LINE
  8
0
 10
9.367600
 20
8.435320
 11
9.510560
 21
8.090160
  0
LINE
  8
0
 10
9.510560
 20
8.090160
 11
10.000000
 21
8.780480
  0
LINE
  8
0
 10
10.000000
 20
8.780480
 11
9.510560
 21
8.090160
  0
LINE
  8
0
 10
9.510560
 20
8.090160
 11
9.693720
 21
7.327240
  0
LINE
  8
0
 10
9.693720
 20
7.327240
 11
9.876880
 21
6.564340
  0
LINE
  8
0
 10
9.876880
 20
6.564340
 11
10.000000
 21
8.780480
  0
LINE
  8
0
 10
10.000000
 20
5.000000
 11
15.000000
 21
5.000000
  0
LINE
  8
0
 10
15.000000
 20
5.000000
 11
15.000000
 21
8.780480
  0
LINE
  8
0
 10
15.000000
 20
8.780480
 11
9.938440
 21
5.782160
  0
LINE
  8
0
 10
9.938440
 20
5.782160
 11
10.000000
 21
5.000000
  0
LINE
  8
0
 10
10.000000
 20
15.000000
 11
5.000000
 21
15.000000
  0
LINE
  8
0
 10
5.000000
 20
15.000000
 11
7.071060
 21
12.071060
  0
LINE
  8
0
 10
7.071060
 20
12.071060
 11
7.580600
 21
11.474460
  0
LINE
  8
0
 10
7.580600
 20
11.474460
 11
10.000000
 21
15.000000
  0
LINE
  8
0
 10
10.000000
 20
8.780480
 11
8.910060
 21
9.539900
  0
LINE
  8
0
 10
8.910060
 20
9.539900
 11
9.067340
 21
9.160200
  0
LINE
  8
0
 10
9.067340
 20
9.160200
 11
9.224620
 21
8.780480
  0
LINE
  8
0
 10
9.224620
 20
8.780480
 11
10.000000
 21
8.780480
  0
LINE
  8
0
 10
5.000000
 20
15.000000
 11
5.000000
 21
13.628120
  0
LINE
  8
0
 10
5.000000
 20
13.628120
 11
5.438920
 21
13.359140
  0
LINE
  8
0
 10
5.438920
 20
13.359140
 11
5.877860
 21
13.090160
  0
LINE
  8
0
 10
5.877860
 20
13.090160
 11
5.000000
 21
15.000000
  0
LINE
  8
0
 10
10.000000
 20
8.780480
 11
8.090160
 21
10.877860
  0
LINE
  8
0
 10
8.090160
 20
10.877860
 11
8.500120
 21
10.208880
  0
LINE
  8
0
 10
8.500120
 20
10.208880
 11
8.910060
 21
9.539900
  0
LINE
  8
0
 10
8.910060
 20
9.539900
 11
10.000000
 21
8.780480
  0
LINE
  8
0
 10
5.000000
 20
15.000000
 11
5.877860
 21
13.090160
  0
LINE
  8
0
 10
5.877860
 20
13.090160
 11
6.474460
 21
12.580600
  0
LINE
  8
0
 10
6.474460
 20
12.580600
 11
7.071060
 21
12.071060
  0
LINE
  8
0
 10
7.071060
 20
12.071060
 11
5.000000
 21
15.000000
  0
LINE
  8
0
 10
10.000000
 20
8.780480
 11
10.000000
 21
15.000000
  0
LINE
  8
0
 10
10.000000
 20
15.000000
 11
7.580600
 21
11.474460
  0
LINE
  8
0
 10
7.580600
 20
11.474460
 11
8.090160
 21
10.877860
  0
LINE
  8
0
 10
8.090160
 20
10.877860
 11
10.000000
 21
8.780480
  0
LINE
  8
0
 10
10.000000
 20
15.000000
 11
10.000000
 21
20.000000
  0
LINE
  8
0
 10
10.000000
 20
20.000000
 11
5.000000
 21
20.000000
  0
LINE
  8
0
 10
5.000000
 20
20.000000
 11
5.000000
 21
15.000000
  0
LINE
  8
0
 10
5.000000
 20
15.000000
 11
10.000000
 21
15.000000
  0
LINE
  8
0
 10
10.000000
 20
-5.000000
 11
10.000000
 21
-10.000000
  0
LINE
  8
0
 10
10.000000
 20
-10.000000
 11
15.000000
 21
-10.000000
  0
LINE
  8
0
 10
15.000000
 20
-10.000000
 11
15.000000
 21
-5.000000
  0
LINE
  8
0
 10
15.000000
 20
-5.000000
 11
10.000000
 21
-5.000000
  0
LINE
  8
0
 10
15.000000
 20
15.000000
 11
15.000000
 21
20.000000
  0
LINE
  8
0
 10
15.000000
 20
20.000000
 11
10.000000
 21
20.000000
  0
LINE
  8
0
 10
10.000000
 20
20.000000
 11
10.000000
 21
15.000000
  0
LINE
  8
0
 10
10.000000
 20
15.000000
 11
15.000000
 21
15.000000
  0
LINE
  8
0
 10
15.000000
 20
-5.000000
 11
15.000000
 21
-10.000000
  0
LINE
  8
0
 10
15.000000
 20
-10.000000
 11
18.394640
 21
-10.000000
  0
LINE
  8
0
 10
18.394640
 20
-10.000000
 11
21.335000
 21
-3.780820
  0
LINE
  8
0
 10
21.335000
 20
-3.780820
 11
15.000000
 21
-5.000000
  0
LINE
  8
0
 10
18.998820
 20
13.357400
 11
18.394640
 21
20.000000
  0
LINE
  8
0
 10
18.394640
 20
20.000000
 11
15.000000
 21
20.000000
  0
LINE
  8
0
 10
15.000000
 20
20.000000
 11
15.000000
 21
15.000000
  0
LINE
  8
0
 10
15.000000
 20
15.000000
 11
18.998820
 21
13.357400
  0
LINE
  8
0
 10
18.394640
 20
-10.000000
 11
25.000000
 21
-10.000000
  0
LINE
  8
0
 10
25.000000
 20
-10.000000
 11
24.355900
 21
-3.901780
  0
LINE
  8
0
 10
24.355900
 20
-3.901780
 11
21.335000
 21
-3.780820
  0
LINE
  8
0
 10
21.335000
 20
-3.780820
 11
18.394640
 21
-10.000000
  0
LINE
  8
0
 10
21.335000
 20
-3.780820
 11
24.355900
 21
-3.901780
  0
LINE
  8
0
 10
24.355900
 20
-3.901780
 11
23.000000
 21
-2.000000
  0
LINE
  8
0
 10
23.000000
 20
-2.000000
 11
22.250000
 21
-1.799040
  0
LINE
  8
0
 10
22.250000
 20
-1.799040
 11
21.335000
 21
-3.780820
  0
LINE
  8
0
 10
18.918260
 20
-2.369420
 11
21.500000
 21
-1.598080
  0
LINE
  8
0
 10
21.500000
 20
-1.598080
 11
21.300960
 21
-1.399040
  0
LINE
  8
0
 10
21.300960
 20
-1.399040
 11
21.101920
 21
-1.200000
  0
LINE
  8
0
 10
21.101920
 20
-1.200000
 11
18.918260
 21
-2.369420
  0
LINE
  8
0
 10
18.918260
 20
-2.369420
 11
21.335000
 21
-3.780820
  0
LINE
  8
0
 10
21.335000
 20
-3.780820
 11
22.250000
 21
-1.799040
  0
LINE
  8
0
 10
22.250000
 20
-1.799040
 11
21.500000
 21
-1.598080
  0
LINE
  8
0
 10
21.500000
 20
-1.598080
 11
18.918260
 21
-2.369420
  0
LINE
  8
0
 10
24.355900
 20
-3.901780
 11
25.000000
 21
-2.000000
  0
LINE
  8
0
 10
25.000000
 20
-2.000000
 11
24.000000
 21
-2.000000
  0
LINE
  8
0
 10
24.000000
 20
-2.000000
 11
23.000000
 21
-2.000000
  0
LINE
  8
0
 10
23.000000
 20
-2.000000
 11
24.355900
 21
-3.901780
  0
LINE
  8
0
 10
18.918260
 20
-2.369420
 11
20.401920
 21
-0.500000
  0
LINE
  8
0
 10
20.401920
 20
-0.500000
 11
20.000000
 21
1.000000
  0
LINE
  8
0
 10
20.000000
 20
1.000000
 11
18.072400
 21
3.034140
  0
LINE
  8
0
 10
18.072400
 20
3.034140
 11
18.918260
 21
-2.369420
  0
LINE
  8
0
 10
18.918260
 20
-2.369420
 11
21.101920
 21
-1.200000
  0
LINE
  8
0
 10
21.101920
 20
-1.200000
 11
20.751920
 21
-0.850000
  0
LINE
  8
0
 10
20.751920
 20
-0.850000
 11
20.401920
 21
-0.500000
  0
LINE
  8
0
 10
20.401920
 20
-0.500000
 11
18.918260
 21
-2.369420
  0
LINE
  8
0
 10
18.072400
 20
3.034140
 11
20.000000
 21
1.000000
  0
LINE
  8
0
 10
20.000000
 20
1.000000
 11
20.000000
 21
3.000000
  0
LINE
  8
0
 10
20.000000
 20
3.000000
 11
20.000000
 21
5.000000
  0
LINE
  8
0
 10
20.000000
 20
5.000000
 11
18.072400
 21
3.034140
  0
LINE
  8
0
 10
20.000000
 20
5.000000
 11
20.000000
 21
8.780480
  0
LINE
  8
0
 10
20.000000
 20
8.780480
 11
18.475200
 21
11.179840
  0
LINE
  8
0
 10
18.475200
 20
11.179840
 11
18.072400
 21
3.034140
  0
LINE
  8
0
 10
18.072400
 20
3.034140
 11
20.000000
 21
5.000000
  0
LINE
  8
0
 10
18.475200
 20
11.179840
 11
21.500000
 21
11.598080
  0
LINE
  8
0
 10
21.500000
 20
11.598080
 11
21.335000
 21
14.204240
  0
LINE
  8
0
 10
21.335000
 20
14.204240
 11
18.998820
 21
13.357400
  0
LINE
  8
0
 10
18.998820
 20
13.357400
 11
18.475200
 21
11.179840
  0
LINE
  8
0
 10
18.475200
 20
11.179840
 11
20.000000
 21
8.780480
  0
LINE
  8
0
 10
20.000000
 20
8.780480
 11
20.000000
 21
8.890240
  0
LINE
  8
0
 10
20.000000
 20
8.890240
 11
20.000000
 21
9.000000
  0
LINE
  8
0
 10
20.000000
 20
9.000000
 11
18.475200
 21
11.179840
  0
LINE
  8
0
 10
18.475200
 20
11.179840
 11
20.000000
 21
9.000000
  0
LINE
  8
0
 10
20.000000
 20
9.000000
 11
20.200960
 21
9.750000
  0
LINE
  8
0
 10
20.200960
 20
9.750000
 11
20.401920
 21
10.500000
  0
LINE
  8
0
 10
20.401920
 20
10.500000
 11
18.475200
 21
11.179840
  0
LINE
  8
0
 10
18.475200
 20
11.179840
 11
20.401920
 21
10.500000
  0
LINE
  8
0
 10
20.401920
 20
10.500000
 11
20.950960
 21
11.049040
  0
LINE
  8
0
 10
20.950960
 20
11.049040
 11
21.500000
 21
11.598080
  0
LINE
  8
0
 10
21.500000
 20
11.598080
 11
18.475200
 21
11.179840
  0
LINE
  8
0
 10
21.335000
 20
14.204240
 11
23.000000
 21
12.000000
  0
LINE
  8
0
 10
23.000000
 20
12.000000
 11
24.000000
 21
12.000000
  0
LINE
  8
0
 10
24.000000
 20
12.000000
 11
25.000000
 21
12.000000
  0
LINE
  8
0
 10
25.000000
 20
12.000000
 11
21.335000
 21
14.204240
  0
LINE
  8
0
 10
21.335000
 20
14.204240
 11
21.500000
 21
11.598080
  0
LINE
  8
0
 10
21.500000
 20
11.598080
 11
22.250000
 21
11.799040
  0
LINE
  8
0
 10
22.250000
 20
11.799040
 11
23.000000
 21
12.000000
  0
LINE
  8
0
 10
23.000000
 20
12.000000
 11
21.335000
 21
14.204240
  0
LINE
  8
0
 10
25.000000
 20
20.000000
 11
18.394640
 21
20.000000
  0
LINE
  8
0
 10
18.394640
 20
20.000000
 11
18.998820
 21
13.357400
  0
LINE
  8
0
 10
18.998820
 20
13.357400
 11
21.335000
 21
14.204240
  0
LINE
  8
0
 10
21.335000
 20
14.204240
 11
25.000000
 21
20.000000
  0
LINE
  8
0
 10
24.355900
 20
-3.901780
 11
25.000000
 21
-10.000000
  0
LINE
  8
0
 10
25.000000
 20
-10.000000
 11
29.572020
 21
-10.000000
  0
LINE
  8
0
 10
29.572020
 20
-10.000000
 11
29.572020
 21
-5.000000
  0
LINE
  8
0
 10
29.572020
 20
-5.000000
 11
24.355900
 21
-3.901780
  0
LINE
  8
0
 10
29.572020
 20
-2.000000
 11
25.000000
 21
-2.000000
  0
LINE
  8
0
 10
25.000000
 20
-2.000000
 11
24.355900
 21
-3.901780
  0
LINE
  8
0
 10
24.355900
 20
-3.901780
 11
29.572020
 21
-5.000000
  0
LINE
  8
0
 10
29.572020
 20
-5.000000
 11
29.572020
 21
-2.000000
  0
LINE
  8
0
 10
25.000000
 20
12.000000
 11
29.572020
 21
12.000000
  0
LINE
  8
0
 10
29.572020
 20
12.000000
 11
29.572020
 21
15.000000
  0
LINE
  8
0
 10
29.572020
 20
15.000000
 11
21.335000
 21
14.204240
  0
LINE
  8
0
 10
21.335000
 20
14.204240
 11
25.000000
 21
12.000000
  0
LINE
  8
0
 10
29.572020
 20
15.000000
 11
29.572020
 21
20.000000
  0
LINE
  8
0
 10
29.572020
 20
20.000000
 11
25.000000
 21
20.000000
  0
LINE
  8
0
 10
25.000000
 20
20.000000
 11
21.335000
 21
14.204240
  0
LINE
  8
0
 10
21.335000
 20
14.204240
 11
29.572020
 21
15.000000
  0
LINE
  8
0
 10
29.572020
 20
-10.000000
 11
35.000000
 21
-10.000000
  0
LINE
  8
0
 10
35.000000
 20
-10.000000
 11
35.000000
 21
-5.000000
  0
LINE
  8
0
 10
35.000000
 20
-5.000000
 11
29.572020
 21
-5.000000
  0
LINE
  8
0
 10
29.572020
 20
-5.000000
 11
29.572020
 21
-10.000000
  0
LINE
  8
0
 10
35.000000
 20
-2.000000
 11
29.572020
 21
-2.000000
  0
LINE
  8
0
 10
29.572020
 20
-2.000000
 11
29.572020
 21
-5.000000
  0
LINE
  8
0
 10
29.572020
 20
-5.000000
 11
35.000000
 21
-5.000000
  0
LINE
  8
0
 10
35.000000
 20
-5.000000
 11
35.000000
 21
-2.000000
  0
LINE
  8
0
 10
29.572020
 20
12.000000
 11
35.000000
 21
12.000000
  0
LINE
  8
0
 10
35.000000
 20
12.000000
 11
35.000000
 21
15.000000
  0
LINE
  8
0
 10
35.000000
 20
15.000000
 11
29.572020
 21
15.000000
  0
LINE
  8
0
 10
29.572020
 20
15.000000
 11
29.572020
 21
12.000000
  0
LINE
  8
0
 10
35.000000
 20
20.000000
 11
29.572020
 21
20.000000
  0
LINE
  8
0
 10
29.572020
 20
20.000000
 11
29.572020
 21
15.000000
  0
LINE
  8
0
 10
29.572020
 20
15.000000
 11
35.000000
 21
15.000000
  0
LINE
  8
0
 10
35.000000
 20
15.000000
 11
35.000000
 21
20.000000
  0
LINE
  8
0
 10
35.000000
 20
-5.000000
 11
35.000000
 21
-10.000000
  0
LINE
  8
0
 10
35.000000
 20
-10.000000
 11
40.000000
 21
-10.000000
  0
LINE
  8
0
 10
40.000000
 20
-10.000000
 11
40.000000
 21
-5.000000
  0
LINE
  8
0
 10
40.000000
 20
-5.000000
 11
35.000000
 21
-5.000000
  0
LINE
  8
0
 10
40.000000
 20
-2.000000
 11
35.000000
 21
-2.000000
  0
LINE
  8
0
 10
35.000000
 20
-2.000000
 11
35.000000
 21
-5.000000
  0
LINE
  8
0
 10
35.000000
 20
-5.000000
 11
40.000000
 21
-5.000000
  0
LINE
  8
0
 10
40.000000
 20
-5.000000
 11
40.000000
 21
-2.000000
  0
LINE
  8
0
 10
35.000000
 20
12.000000
 11
40.000000
 21
12.000000
  0
LINE
  8
0
 10
40.000000
 20
12.000000
 11
40.000000
 21
15.000000
  0
LINE
  8
0
 10
40.000000
 20
15.000000
 11
35.000000
 21
15.000000
  0
LINE
  8
0
 10
35.000000
 20
15.000000
 11
35.000000
 21
12.000000
  0
LINE
  8
0
 10
40.000000
 20
15.000000
 11
40.000000
 21
20.000000
  0
LINE
  8
0
 10
40.000000
 20
20.000000
 11
35.000000
 21
20.000000
  0
LINE
  8
0
 10
35.000000
 20
20.000000
 11
35.000000
 21
15.000000
  0
LINE
  8
0
 10
35.000000
 20
15.000000
 11
40.000000
 21
15.000000
  0
LINE
  8
0
 10
40.000000
 20
-5.000000
 11
40.000000
 21
-10.000000
  0
LINE
  8
0
 10
40.000000
 20
-10.000000
 11
45.000000
 21
-10.000000
  0
LINE
  8
0
 10
45.000000
 20
-10.000000
 11
45.000000
 21
-5.000000
  0
LINE
  8
0
 10
45.000000
 20
-5.000000
 11
40.000000
 21
-5.000000
  0
LINE
  8
0
 10
45.000000
 20
-2.000000
 11
40.000000
 21
-2.000000
  0
LINE
  8
0
 10
40.000000
 20
-2.000000
 11
40.000000
 21
-5.000000
  0
LINE
  8
0
 10
40.000000
 20
-5.000000
 11
45.000000
 21
-5.000000
  0
LINE
  8
0
 10
45.000000
 20
-5.000000
 11
45.000000
 21
-2.000000
  0
LINE
  8
0
 10
40.000000
 20
12.000000
 11
45.000000
 21
12.000000
  0
LINE
  8
0
 10
45.000000
 20
12.000000
 11
45.000000
 21
15.000000
  0
LINE
  8
0
 10
45.000000
 20
15.000000
 11
40.000000
 21
15.000000
  0
LINE
  8
0
 10
40.000000
 20
15.000000
 11
40.000000
 21
12.000000
  0
LINE
  8
0
 10
45.000000
 20
15.000000
 11
45.000000
 21
20.000000
  0
LINE
  8
0
 10
45.000000
 20
20.000000
 11
40.000000
 21
20.000000
  0
LINE
  8
0
 10
40.000000
 20
20.000000
 11
40.000000
 21
15.000000
  0
LINE
  8
0
 10
40.000000
 20
15.000000
 11
45.000000
 21
15.000000
  0
LINE
  8
0
 10
45.000000
 20
-5.000000
 11
45.000000
 21
-10.000000
  0
LINE
  8
0
 10
45.000000
 20
-10.000000
 11
50.000000
 21
-10.000000
  0
LINE
  8
0
 10
50.000000
 20
-10.000000
 11
50.000000
 21
-5.000000
  0
LINE
  8
0
 10
50.000000
 20
-5.000000
 11
45.000000
 21
-5.000000
  0
LINE
  8
0
 10
50.000000
 20
-2.000000
 11
45.000000
 21
-2.000000
  0
LINE
  8
0
 10
45.000000
 20
-2.000000
 11
45.000000
 21
-5.000000
  0
LINE
  8
0
 10
45.000000
 20
-5.000000
 11
50.000000
 21
-5.000000
  0
LINE
  8
0
 10
50.000000
 20
-5.000000
 11
50.000000
 21
-2.000000
  0
LINE
  8
0
 10
45.000000
 20
12.000000
 11
50.000000
 21
12.000000
  0
LINE
  8
0
 10
50.000000
 20
12.000000
 11
50.000000
 21
15.000000
  0
LINE
  8
0
 10
50.000000
 20
15.000000
 11
45.000000
 21
15.000000
  0
LINE
  8
0
 10
45.000000
 20
15.000000
 11
45.000000
 21
12.000000
  0
LINE
  8
0
 10
50.000000
 20
15.000000
 11
50.000000
 21
20.000000
  0
LINE
  8
0
 10
50.000000
 20
20.000000
 11
45.000000
 21
20.000000
  0
LINE
  8
0
 10
45.000000
 20
20.000000
 11
45.000000
 21
15.000000
  0
LINE
  8
0
 10
45.000000
 20
15.000000
 11
50.000000
 21
15.000000
  0
LINE
  8
0
 10
50.000000
 20
-5.000000
 11
50.000000
 21
-10.000000
  0
LINE
  8
0
 10
50.000000
 20
-10.000000
 11
55.000000
 21
-10.000000
  0
LINE
  8
0
 10
55.000000
 20
-10.000000
 11
55.000000
 21
-5.000000
  0
LINE
  8
0
 10
55.000000
 20
-5.000000
 11
50.000000
 21
-5.000000
  0
LINE
  8
0
 10
55.000000
 20
-2.000000
 11
50.000000
 21
-2.000000
  0
LINE
  8
0
 10
50.000000
 20
-2.000000
 11
50.000000
 21
-5.000000
  0
LINE
  8
0
 10
50.000000
 20
-5.000000
 11
55.000000
 21
-5.000000
  0
LINE
  8
0
 10
55.000000
 20
-5.000000
 11
55.000000
 21
-2.000000
  0
LINE
  8
0
 10
50.000000
 20
12.000000
 11
55.000000
 21
12.000000
  0
LINE
  8
0
 10
55.000000
 20
12.000000
 11
55.000000
 21
15.000000
  0
LINE
  8
0
 10
55.000000
 20
15.000000
 11
50.000000
 21
15.000000
  0
LINE
  8
0
 10
50.000000
 20
15.000000
 11
50.000000
 21
12.000000
  0
LINE
  8
0
 10
55.000000
 20
15.000000
 11
55.000000
 21
20.000000
  0
LINE
  8
0
 10
55.000000
 20
20.000000
 11
50.000000
 21
20.000000
  0
LINE
  8
0
 10
50.000000
 20
20.000000
 11
50.000000
 21
15.000000
  0
LINE
  8
0
 10
50.000000
 20
15.000000
 11
55.000000
 21
15.000000
  0
LINE
  8
0
 10
55.000000
 20
-5.000000
 11
55.000000
 21
-10.000000
  0
LINE
  8
0
 10
55.000000
 20
-10.000000
 11
60.000000
 21
-10.000000
  0
LINE
  8
0
 10
60.000000
 20
-10.000000
 11
60.000000
 21
-5.000000
  0
LINE
  8
0
 10
60.000000
 20
-5.000000
 11
55.000000
 21
-5.000000
  0
LINE
  8
0
 10
60.000000
 20
-2.000000
 11
55.000000
 21
-2.000000
  0
LINE
  8
0
 10
55.000000
 20
-2.000000
 11
55.000000
 21
-5.000000
  0
LINE
  8
0
 10
55.000000
 20
-5.000000
 11
60.000000
 21
-5.000000
  0
LINE
  8
0
 10
60.000000
 20
-5.000000
 11
60.000000
 21
-2.000000
  0
LINE
  8
0
 10
55.000000
 20
12.000000
 11
60.000000
 21
12.000000
  0
LINE
  8
0
 10
60.000000
 20
12.000000
 11
60.000000
 21
15.000000
  0
LINE
  8
0
 10
60.000000
 20
15.000000
 11
55.000000
 21
15.000000
  0
LINE
  8
0
 10
55.000000
 20
15.000000
 11
55.000000
 21
12.000000
  0
LINE
  8
0
 10
60.000000
 20
15.000000
 11
60.000000
 21
20.000000
  0
LINE
  8
0
 10
60.000000
 20
20.000000
 11
55.000000
 21
20.000000
  0
LINE
  8
0
 10
55.000000
 20
20.000000
 11
55.000000
 21
15.000000
  0
LINE
  8
0
 10
55.000000
 20
15.000000
 11
60.000000
 21
15.000000
  0
LINE
  8
0
 10
60.000000
 20
-5.000000
 11
60.000000
 21
-10.000000
  0
LINE
  8
0
 10
60.000000
 20
-10.000000
 11
65.000000
 21
-10.000000
  0
LINE
  8
0
 10
65.000000
 20
-10.000000
 11
65.000000
 21
-5.000000
  0
LINE
  8
0
 10
65.000000
 20
-5.000000
 11
60.000000
 21
-5.000000
  0
LINE
  8
0
 10
65.000000
 20
-2.000000
 11
60.000000
 21
-2.000000
  0
LINE
  8
0
 10
60.000000
 20
-2.000000
 11
60.000000
 21
-5.000000
  0
LINE
  8
0
 10
60.000000
 20
-5.000000
 11
65.000000
 21
-5.000000
  0
LINE
  8
0
 10
65.000000
 20
-5.000000
 11
65.000000
 21
-2.000000
  0
LINE
  8
0
 10
60.000000
 20
12.000000
 11
65.000000
 21
12.000000
  0
LINE
  8
0
 10
65.000000
 20
12.000000
 11
65.000000
 21
15.000000
  0
LINE
  8
0
 10
65.000000
 20
15.000000
 11
60.000000
 21
15.000000
  0
LINE
  8
0
 10
60.000000
 20
15.000000
 11
60.000000
 21
12.000000
  0
LINE
  8
0
 10
65.000000
 20
15.000000
 11
65.000000
 21
20.000000
  0
LINE
  8
0
 10
65.000000
 20
20.000000
 11
60.000000
 21
20.000000
  0
LINE
  8
0
 10
60.000000
 20
20.000000
 11
60.000000
 21
15.000000
  0
LINE
  8
0
 10
60.000000
 20
15.000000
 11
65.000000
 21
15.000000
  0
LINE
  8
0
 10
65.000000
 20
-5.000000
 11
65.000000
 21
-10.000000
  0
LINE
  8
0
 10
65.000000
 20
-10.000000
 11
70.000000
 21
-10.000000
  0
LINE
  8
0
 10
70.000000
 20
-10.000000
 11
70.000000
 21
-5.000000
  0
LINE
  8
0
 10
70.000000
 20
-5.000000
 11
65.000000
 21
-5.000000
  0
LINE
  8
0
 10
70.000000
 20
-2.000000
 11
65.000000
 21
-2.000000
  0
LINE
  8
0
 10
65.000000
 20
-2.000000
 11
65.000000
 21
-5.000000
  0
LINE
  8
0
 10
65.000000
 20
-5.000000
 11
70.000000
 21
-5.000000
  0
LINE
  8
0
 10
70.000000
 20
-5.000000
 11
70.000000
 21
-2.000000
  0
LINE
  8
0
 10
65.000000
 20
12.000000
 11
70.000000
 21
12.000000
  0
LINE
  8
0
 10
70.000000
 20
12.000000
 11
70.000000
 21
15.000000
  0
LINE
  8
0
 10
70.000000
 20
15.000000
 11
65.000000
 21
15.000000
  0
LINE
  8
0
 10
65.000000
 20
15.000000
 11
65.000000
 21
12.000000
  0
LINE
  8
0
 10
70.000000
 20
15.000000
 11
70.000000
 21
20.000000
  0
LINE
  8
0
 10
70.000000
 20
20.000000
 11
65.000000
 21
20.000000
  0
LINE
  8
0
 10
65.000000
 20
20.000000
 11
65.000000
 21
15.000000
  0
LINE
  8
0
 10
65.000000
 20
15.000000
 11
70.000000
 21
15.000000
  0
LINE
  8
0
 10
70.000000
 20
-5.000000
 11
70.000000
 21
-10.000000
  0
LINE
  8
0
 10
70.000000
 20
-10.000000
 11
75.000000
 21
-10.000000
  0
LINE
  8
0
 10
75.000000
 20
-10.000000
 11
75.000000
 21
-5.000000
  0
LINE
  8
0
 10
75.000000
 20
-5.000000
 11
70.000000
 21
-5.000000
  0
LINE
  8
0
 10
75.000000
 20
-2.000000
 11
70.000000
 21
-2.000000
  0
LINE
  8
0
 10
70.000000
 20
-2.000000
 11
70.000000
 21
-5.000000
  0
LINE
  8
0
 10
70.000000
 20
-5.000000
 11
75.000000
 21
-5.000000
  0
LINE
  8
0
 10
75.000000
 20
-5.000000
 11
75.000000
 21
-2.000000
  0
LINE
  8
0
 10
70.000000
 20
12.000000
 11
75.000000
 21
12.000000
  0
LINE
  8
0
 10
75.000000
 20
12.000000
 11
75.000000
 21
15.000000
  0
LINE
  8
0
 10
75.000000
 20
15.000000
 11
70.000000
 21
15.000000
  0
LINE
  8
0
 10
70.000000
 20
15.000000
 11
70.000000
 21
12.000000
  0
LINE
  8
0
 10
75.000000
 20
15.000000
 11
75.000000
 21
20.000000
  0
LINE
  8
0
 10
75.000000
 20
20.000000
 11
70.000000
 21
20.000000
  0
LINE
  8
0
 10
70.000000
 20
20.000000
 11
70.000000
 21
15.000000
  0
LINE
  8
0
 10
70.000000
 20
15.000000
 11
75.000000
 21
15.000000
  0
LINE
  8
0
 10
75.000000
 20
-5.000000
 11
75.000000
 21
-10.000000
  0
LINE
  8
0
 10
75.000000
 20
-10.000000
 11
80.000000
 21
-10.000000
  0
LINE
  8
0
 10
80.000000
 20
-10.000000
 11
81.170720
 21
-4.107840
  0
LINE
  8
0
 10
81.170720
 20
-4.107840
 11
75.000000
 21
-5.000000
  0
LINE
  8
0
 10
80.000000
 20
-2.000000
 11
75.000000
 21
-2.000000
  0
LINE
  8
0
 10
75.000000
 20
-2.000000
 11
75.000000
 21
-5.000000
  0
LINE
  8
0
 10
75.000000
 20
-5.000000
 11
81.170720
 21
-4.107840
  0
LINE
  8
0
 10
81.170720
 20
-4.107840
 11
80.000000
 21
-2.000000
  0
LINE
  8
0
 10
75.000000
 20
12.000000
 11
80.000000
 21
12.000000
  0
LINE
  8
0
 10
80.000000
 20
12.000000
 11
82.243520
 21
14.315860
  0
LINE
  8
0
 10
82.243520
 20
14.315860
 11
75.000000
 21
15.000000
  0
LINE
  8
0
 10
75.000000
 20
15.000000
 11
75.000000
 21
12.000000
  0
LINE
  8
0
 10
82.243520
 20
14.315860
 11
80.000000
 21
20.000000
  0
LINE
  8
0
 10
80.000000
 20
20.000000
 11
75.000000
 21
20.000000
  0
LINE
  8
0
 10
75.000000
 20
20.000000
 11
75.000000
 21
15.000000
  0
LINE
  8
0
 10
75.000000
 20
15.000000
 11
82.243520
 21
14.315860
  0
LINE
  8
0
 10
80.000000
 20
-10.000000
 11
86.365220
 21
-10.000000
  0
LINE
  8
0
 10
86.365220
 20
-10.000000
 11
83.852700
 21
-3.983920
  0
LINE
  8
0
 10
83.852700
 20
-3.983920
 11
81.170720
 21
-4.107840
  0
LINE
  8
0
 10
81.170720
 20
-4.107840
 11
80.000000
 21
-10.000000
  0
LINE
  8
0
 10
83.852700
 20
-3.983920
 11
85.626940
 21
-2.455480
  0
LINE
  8
0
 10
85.626940
 20
-2.455480
 11
83.500000
 21
-1.598080
  0
LINE
  8
0
 10
83.500000
 20
-1.598080
 11
82.750000
 21
-1.799040
  0
LINE
  8
0
 10
82.750000
 20
-1.799040
 11
83.852700
 21
-3.983920
  0
LINE
  8
0
 10
85.626940
 20
-2.455480
 11
83.898080
 21
-1.200000
  0
LINE
  8
0
 10
83.898080
 20
-1.200000
 11
83.699040
 21
-1.399040
  0
LINE
  8
0
 10
83.699040
 20
-1.399040
 11
83.500000
 21
-1.598080
  0
LINE
  8
0
 10
83.500000
 20
-1.598080
 11
85.626940
 21
-2.455480
  0
LINE
  8
0
 10
82.000000
 20
-2.000000
 11
81.170720
 21
-4.107840
  0
LINE
  8
0
 10
81.170720
 20
-4.107840
 11
83.852700
 21
-3.983920
  0
LINE
  8
0
 10
83.852700
 20
-3.983920
 11
82.750000
 21
-1.799040
  0
LINE
  8
0
 10
82.750000
 20
-1.799040
 11
82.000000
 21
-2.000000
  0
LINE
  8
0
 10
81.170720
 20
-4.107840
 11
82.000000
 21
-2.000000
  0
LINE
  8
0
 10
82.000000
 20
-2.000000
 11
81.000000
 21
-2.000000
  0
LINE
  8
0
 10
81.000000
 20
-2.000000
 11
80.000000
 21
-2.000000
  0
LINE
  8
0
 10
80.000000
 20
-2.000000
 11
81.170720
 21
-4.107840
  0
LINE
  8
0
 10
85.000000
 20
1.000000
 11
84.598080
 21
-0.500000
  0
LINE
  8
0
 10
84.598080
 20
-0.500000
 11
85.626940
 21
-2.455480
  0
LINE
  8
0
 10
85.626940
 20
-2.455480
 11
87.071080
 21
2.790720
  0
LINE
  8
0
 10
87.071080
 20
2.790720
 11
85.000000
 21
1.000000
  0
LINE
  8
0
 10
85.626940
 20
-2.455480
 11
84.598080
 21
-0.500000
  0
LINE
  8
0
 10
84.598080
 20
-0.500000
 11
84.248080
 21
-0.850000
  0
LINE
  8
0
 10
84.248080
 20
-0.850000
 11
83.898080
 21
-1.200000
  0
LINE
  8
0
 10
83.898080
 20
-1.200000
 11
85.626940
 21
-2.455480
  0
LINE
  8
0
 10
87.071080
 20
2.790720
 11
85.000000
 21
5.000000
  0
LINE
  8
0
 10
85.000000
 20
5.000000
 11
85.000000
 21
3.000000
  0
LINE
  8
0
 10
85.000000
 20
3.000000
 11
85.000000
 21
1.000000
  0
LINE
  8
0
 10
85.000000
 20
1.000000
 11
87.071080
 21
2.790720
  0
LINE
  8
0
 10
85.000000
 20
8.780480
 11
85.000000
 21
5.000000
  0
LINE
  8
0
 10
85.000000
 20
5.000000
 11
87.071080
 21
2.790720
  0
LINE
  8
0
 10
87.071080
 20
2.790720
 11
86.741000
 21
10.226300
  0
LINE
  8
0
 10
86.741000
 20
10.226300
 11
85.000000
 21
8.780480
  0
LINE
  8
0
 10
83.500000
 20
11.598080
 11
84.598080
 21
10.500000
  0
LINE
  8
0
 10
84.598080
 20
10.500000
 11
86.741000
 21
10.226300
  0
LINE
  8
0
 10
86.741000
 20
10.226300
 11
84.842980
 21
13.407060
  0
LINE
  8
0
 10
84.842980
 20
13.407060
 11
83.500000
 21
11.598080
  0
LINE
  8
0
 10
82.000000
 20
12.000000
 11
83.500000
 21
11.598080
  0
LINE
  8
0
 10
83.500000
 20
11.598080
 11
84.842980
 21
13.407060
  0
LINE
  8
0
 10
84.842980
 20
13.407060
 11
82.243520
 21
14.315860
  0
LINE
  8
0
 10
82.243520
 20
14.315860
 11
82.000000
 21
12.000000
  0
LINE
  8
0
 10
86.741000
 20
10.226300
 11
85.000000
 21
9.000000
  0
LINE
  8
0
 10
85.000000
 20
9.000000
 11
85.000000
 21
8.890240
  0
LINE
  8
0
 10
85.000000
 20
8.890240
 11
85.000000
 21
8.780480
  0
LINE
  8
0
 10
85.000000
 20
8.780480
 11
86.741000
 21
10.226300
  0
LINE
  8
0
 10
86.741000
 20
10.226300
 11
84.598080
 21
10.500000
  0
LINE
  8
0
 10
84.598080
 20
10.500000
 11
84.799040
 21
9.750000
  0
LINE
  8
0
 10
84.799040
 20
9.750000
 11
85.000000
 21
9.000000
  0
LINE
  8
0
 10
85.000000
 20
9.000000
 11
86.741000
 21
10.226300
  0
LINE
  8
0
 10
82.243520
 20
14.315860
 11
80.000000
 21
12.000000
  0
LINE
  8
0
 10
80.000000
 20
12.000000
 11
81.000000
 21
12.000000
  0
LINE
  8
0
 10
81.000000
 20
12.000000
 11
82.000000
 21
12.000000
  0
LINE
  8
0
 10
82.000000
 20
12.000000
 11
82.243520
 21
14.315860
  0
LINE
  8
0
 10
86.365220
 20
20.000000
 11
80.000000
 21
20.000000
  0
LINE
  8
0
 10
80.000000
 20
20.000000
 11
82.243520
 21
14.315860
  0
LINE
  8
0
 10
82.243520
 20
14.315860
 11
84.842980
 21
13.407060
  0
LINE
  8
0
 10
84.842980
 20
13.407060
 11
86.365220
 21
20.000000
  0
LINE
  8
0
 10
83.852700
 20
-3.983920
 11
86.365220
 21
-10.000000
  0
LINE
  8
0
 10
86.365220
 20
-10.000000
 11
90.000000
 21
-10.000000
  0
LINE
  8
0
 10
90.000000
 20
-10.000000
 11
90.000000
 21
-5.000000
  0
LINE
  8
0
 10
90.000000
 20
-5.000000
 11
83.852700
 21
-3.983920
  0
LINE
  8
0
 10
90.000000
 20
15.000000
 11
90.000000
 21
20.000000
  0
LINE
  8
0
 10
90.000000
 20
20.000000
 11
86.365220
 21
20.000000
  0
LINE
  8
0
 10
86.365220
 20
20.000000
 11
84.842980
 21
13.407060
  0
LINE
  8
0
 10
84.842980
 20
13.407060
 11
90.000000
 21
15.000000
  0
LINE
  8
0
 10
90.000000
 20
-5.000000
 11
90.000000
 21
-10.000000
  0
LINE
  8
0
 10
90.000000
 20
-10.000000
 11
95.000000
 21
-10.000000
  0
LINE
  8
0
 10
95.000000
 20
-10.000000
 11
95.000000
 21
-5.000000
  0
LINE
  8
0
 10
95.000000
 20
-5.000000
 11
90.000000
 21
-5.000000
  0
LINE
  8
0
 10
95.000000
 20
15.000000
 11
95.000000
 21
20.000000
  0
LINE
  8
0
 10
95.000000
 20
20.000000
 11
90.000000
 21
20.000000
  0
LINE
  8
0
 10
90.000000
 20
20.000000
 11
90.000000
 21
15.000000
  0
LINE
  8
0
 10
90.000000
 20
15.000000
 11
95.000000
 21
15.000000
  0
LINE
  8
0
 10
95.000000
 20
-5.000000
 11
95.000000
 21
-10.000000
  0
LINE
  8
0
 10
95.000000
 20
-10.000000
 11
98.750980
 21
-10.000000
  0
LINE
  8
0
 10
98.750980
 20
-10.000000
 11
98.750980
 21
-5.000000
  0
LINE
  8
0
 10
98.750980
 20
-5.000000
 11
95.000000
 21
-5.000000
  0
LINE
  8
0
 10
95.000000
 20
15.000000
 11
98.750980
 21
15.000000
  0
LINE
  8
0
 10
98.750980
 20
15.000000
 11
98.750980
 21
18.233020
  0
LINE
  8
0
 10
98.750980
 20
18.233020
 11
97.938920
 21
19.045080
  0
LINE
  8
0
 10
97.938920
 20
19.045080
 11
95.000000
 21
15.000000
  0
LINE
  8
0
 10
95.000000
 20
20.000000
 11
95.000000
 21
15.000000
  0
LINE
  8
0
 10
95.000000
 20
15.000000
 11
97.938920
 21
19.045080
  0
LINE
  8
0
 10
97.938920
 20
19.045080
 11
96.545080
 21
19.755280
  0
LINE
  8
0
 10
96.545080
 20
19.755280
 11
95.000000
 21
20.000000
  0
LINE
  8
0
 10
98.750980
 20
-10.000000
 11
105.000000
 21
-10.000000
  0
LINE
  8
0
 10
105.000000
 20
-10.000000
 11
105.000000
 21
-5.000000
  0
LINE
  8
0
 10
105.000000
 20
-5.000000
 11
98.750980
 21
-5.000000
  0
LINE
  8
0
 10
98.750980
 20
-5.000000
 11
98.750980
 21
-10.000000
  0
LINE
  8
0
 10
100.954920
 20
2.061080
 11
100.244720
 21
3.454920
  0
LINE
  8
0
 10
100.244720
 20
3.454920
 11
98.582960
 21
4.070040
  0
LINE
  8
0
 10
98.582960
 20
4.070040
 11
100.359980
 21
0.317860
  0
LINE
  8
0
 10
100.359980
 20
0.317860
 11
100.954920
 21
2.061080
  0
LINE
  8
0
 10
103.687840
 20
-1.202420
 11
103.454920
 21
0.244720
  0
LINE
  8
0
 10
103.454920
 20
0.244720
 11
102.061080
 21
0.954920
  0
LINE
  8
0
 10
102.061080
 20
0.954920
 11
100.359980
 21
0.317860
  0
LINE
  8
0
 10
100.359980
 20
0.317860
 11
103.687840
 21
-1.202420
  0
LINE
  8
0
 10
103.687840
 20
-1.202420
 11
105.000000
 21
0.000000
  0
LINE
  8
0
 10
105.000000
 20
0.000000
 11
104.227460
 21
0.122360
  0
LINE
  8
0
 10
104.227460
 20
0.122360
 11
103.454920
 21
0.244720
  0
LINE
  8
0
 10
103.454920
 20
0.244720
 11
103.687840
 21
-1.202420
  0
LINE
  8
0
 10
98.582960
 20
4.070040
 11
100.244720
 21
3.454920
  0
LINE
  8
0
 10
100.244720
 20
3.454920
 11
100.122360
 21
4.227460
  0
LINE
  8
0
 10
100.122360
 20
4.227460
 11
100.000000
 21
5.000000
  0
LINE
  8
0
 10
100.000000
 20
5.000000
 11
98.582960
 21
4.070040
  0
LINE
  8
0
 10
100.359980
 20
0.317860
 11
102.061080
 21
0.954920
  0
LINE
  8
0
 10
102.061080
 20
0.954920
 11
101.508000
 21
1.508000
  0
LINE
  8
0
 10
101.508000
 20
1.508000
 11
100.954920
 21
2.061080
  0
LINE
  8
0
 10
100.954920
 20
2.061080
 11
100.359980
 21
0.317860
  0
LINE
  8
0
 10
100.000000
 20
5.000000
 11
100.000000
 21
8.780480
  0
LINE
  8
0
 10
100.000000
 20
8.780480
 11
98.750980
 21
8.780480
  0
LINE
  8
0
 10
98.750980
 20
8.780480
 11
98.582960
 21
4.070040
  0
LINE
  8
0
 10
98.582960
 20
4.070040
 11
100.000000
 21
5.000000
  0
LINE
  8
0
 10
100.000000
 20
8.780480
 11
100.000000
 21
15.000000
  0
LINE
  8
0
 10
100.000000
 20
15.000000
 11
98.750980
 21
15.000000
  0
LINE
  8
0
 10
98.750980
 20
15.000000
 11
98.750980
 21
8.780480
  0
LINE
  8
0
 10
98.750980
 20
8.780480
 11
100.000000
 21
8.780480
  0
LINE
  8
0
 10
99.755280
 20
16.545080
 11
99.045080
 21
17.938920
  0
LINE
  8
0
 10
99.045080
 20
17.938920
 11
98.750980
 21
18.233020
  0
LINE
  8
0
 10
98.750980
 20
18.233020
 11
98.750980
 21
15.000000
  0
LINE
  8
0
 10
98.750980
 20
15.000000
 11
99.755280
 21
16.545080
  0
LINE
  8
0
 10
98.750980
 20
15.000000
 11
100.000000
 21
15.000000
  0
LINE
  8
0
 10
100.000000
 20
15.000000
 11
99.877640
 21
15.772540
  0
LINE
  8
0
 10
99.877640
 20
15.772540
 11
99.755280
 21
16.545080
  0
LINE
  8
0
 10
99.755280
 20
16.545080
 11
98.750980
 21
15.000000
  0
LINE
  8
0
 10
105.000000
 20
-5.000000
 11
105.000000
 21
-10.000000
  0
LINE
  8
0
 10
105.000000
 20
-10.000000
 11
110.000000
 21
-10.000000
  0
LINE
  8
0
 10
110.000000
 20
-10.000000
 11
110.000000
 21
-5.000000
  0
LINE
  8
0
 10
110.000000
 20
-5.000000
 11
105.000000
 21
-5.000000
  0
LINE
  8
0
 10
110.000000
 20
0.000000
 11
105.000000
 21
0.000000
  0
LINE
  8
0
 10
105.000000
 20
0.000000
 11
103.687840
 21
-1.202420
  0
LINE
  8
0
 10
103.687840
 20
-1.202420
 11
110.000000
 21
-1.200000
  0
LINE
  8
0
 10
110.000000
 20
-1.200000
 11
110.000000
 21
0.000000
  0
LINE
  8
0
 10
110.000000
 20
-5.000000
 11
110.000000
 21
-10.000000
  0
LINE
  8
0
 10
110.000000
 20
-10.000000
 11
115.000000
 21
-10.000000
  0
LINE
  8
0
 10
115.000000
 20
-10.000000
 11
115.000000
 21
-5.000000
  0
LINE
  8
0
 10
115.000000
 20
-5.000000
 11
110.000000
 21
-5.000000
  0
LINE
  8
0
 10
115.000000
 20
0.000000
 11
110.000000
 21
0.000000
  0
LINE
  8
0
 10
110.000000
 20
0.000000
 11
110.000000
 21
-1.200000
  0
LINE
  8
0
 10
110.000000
 20
-1.200000
 11
115.000000
 21
-1.200000
  0
LINE
  8
0
 10
115.000000
 20
-1.200000
 11
115.000000
 21
0.000000
  0
LINE
  8
0
 10
115.000000
 20
-5.000000
 11
115.000000
 21
-10.000000
  0
LINE
  8
0
 10
115.000000
 20
-10.000000
 11
120.000000
 21
-10.000000
  0
LINE
  8
0
 10
120.000000
 20
-10.000000
 11
120.000000
 21
-5.000000
  0
LINE
  8
0
 10
120.000000
 20
-5.000000
 11
115.000000
 21
-5.000000
  0
LINE
  8
0
 10
120.000000
 20
0.000000
 11
115.000000
 21
0.000000
  0
LINE
  8
0
 10
115.000000
 20
0.000000
 11
115.000000
 21
-1.200000
  0
LINE
  8
0
 10
115.000000
 20
-1.200000
 11
120.000000
 21
-1.200000
  0
LINE
  8
0
 10
120.000000
 20
-1.200000
 11
120.000000
 21
0.000000
  0
LINE
  8
0
 10
120.000000
 20
-5.000000
 11
120.000000
 21
-10.000000
  0
LINE
  8
0
 10
120.000000
 20
-10.000000
 11
125.000000
 21
-10.000000
  0
LINE
  8
0
 10
125.000000
 20
-10.000000
 11
125.000000
 21
-5.000000
  0
LINE
  8
0
 10
125.000000
 20
-5.000000
 11
120.000000
 21
-5.000000
  0
LINE
  8
0
 10
125.000000
 20
0.000000
 11
120.000000
 21
0.000000
  0
LINE
  8
0
 10
120.000000
 20
0.000000
 11
120.000000
 21
-1.200000
  0
LINE
  8
0
 10
120.000000
 20
-1.200000
 11
125.000000
 21
-1.200000
  0
LINE
  8
0
 10
125.000000
 20
-1.200000
 11
125.000000
 21
0.000000
  0
LINE
  8
0
 10
125.000000
 20
-5.000000
 11
125.000000
 21
-10.000000
  0
LINE
  8
0
 10
125.000000
 20
-10.000000
 11
130.000000
 21
-10.000000
  0
LINE
  8
0
 10
130.000000
 20
-10.000000
 11
130.000000
 21
-5.000000
  0
LINE
  8
0
 10
130.000000
 20
-5.000000
 11
125.000000
 21
-5.000000
  0
LINE
  8
0
 10
130.000000
 20
0.000000
 11
125.000000
 21
0.000000
  0
LINE
  8
0
 10
125.000000
 20
0.000000
 11
125.000000
 21
-1.200000
  0
LINE
  8
0
 10
125.000000
 20
-1.200000
 11
130.000000
 21
-1.200000
  0
LINE
  8
0
 10
130.000000
 20
-1.200000
 11
130.000000
 21
0.000000
  0
LINE
  8
0
 10
130.000000
 20
-5.000000
 11
130.000000
 21
-10.000000
  0
LINE
  8
0
 10
130.000000
 20
-10.000000
 11
135.000000
 21
-10.000000
  0
LINE
  8
0
 10
135.000000
 20
-10.000000
 11
135.000000
 21
-5.000000
  0
LINE
  8
0
 10
135.000000
 20
-5.000000
 11
130.000000
 21
-5.000000
  0
LINE
  8
0
 10
135.000000
 20
-1.200000
 11
135.000000
 21
2.000000
  0
LINE
  8
0
 10
135.000000
 20
2.000000
 11
130.000000
 21
0.000000
  0
LINE
  8
0
 10
130.000000
 20
0.000000
 11
130.000000
 21
-1.200000
  0
LINE
  8
0
 10
130.000000
 20
-1.200000
 11
135.000000
 21
-1.200000
  0
LINE
  8
0
 10
130.000000
 20
1.000000
 11
130.000000
 21
0.000000
  0
LINE
  8
0
 10
130.000000
 20
0.000000
 11
135.000000
 21
2.000000
  0
LINE
  8
0
 10
135.000000
 20
2.000000
 11
130.000000
 21
2.000000
  0
LINE
  8
0
 10
130.000000
 20
2.000000
 11
130.000000
 21
1.000000
  0
LINE
  8
0
 10
135.000000
 20
-10.000000
 11
139.598080
 21
-8.500000
  0
LINE
  8
0
 10
139.598080
 20
-8.500000
 11
140.000000
 21
-7.000000
  0
LINE
  8
0
 10
140.000000
 20
-7.000000
 11
140.000000
 21
-6.000000
  0
LINE
  8
0
 10
140.000000
 20
-6.000000
 11
135.000000
 21
-10.000000
  0
LINE
  8
0
 10
139.598080
 20
-8.500000
 11
135.000000
 21
-10.000000
  0
LINE
  8
0
 10
135.000000
 20
-10.000000
 11
137.000000
 21
-10.000000
  0
LINE
  8
0
 10
137.000000
 20
-10.000000
 11
138.500000
 21
-9.598080
  0
LINE
  8
0
 10
138.500000
 20
-9.598080
 11
139.598080
 21
-8.500000
  0
LINE
  8
0
 10
140.000000
 20
-5.000000
 11
135.000000
 21
-5.000000
  0
LINE
  8
0
 10
135.000000
 20
-5.000000
 11
135.000000
 21
-10.000000
  0
LINE
  8
0
 10
135.000000
 20
-10.000000
 11
140.000000
 21
-6.000000
  0
LINE
  8
0
 10
140.000000
 20
-6.000000
 11
140.000000
 21
-5.000000
  0
LINE
  8
0
 10
135.000000
 20
-5.000000
 11
140.000000
 21
-5.000000
  0
LINE
  8
0
 10
140.000000
 20
-5.000000
 11
140.000000
 21
-1.200000
  0
LINE
  8
0
 10
140.000000
 20
-1.200000
 11
135.000000
 21
-1.200000
  0
LINE
  8
0
 10
135.000000
 20
-1.200000
 11
135.000000
 21
-5.000000
  0
LINE
  8
0
 10
140.000000
 20
2.000000
 11
135.000000
 21
2.000000
  0
LINE
  8
0
 10
135.000000
 20
2.000000
 11
135.000000
 21
-1.200000
  0
LINE
  8
0
 10
135.000000
 20
-1.200000
 11
140.000000
 21
-1.200000
  0
LINE
  8
0
 10
140.000000
 20
-1.200000
 11
140.000000
 21
2.000000
  0
LINE
  8
0
 10
10.000000
 20
-5.000000
 11
15.000000
 21
-5.000000
  0
LINE
  8
0
 10
15.000000
 20
-5.000000
 11
15.000000
 21
-1.200000
  0
LINE
  8
0
 10
15.000000
 20
-1.200000
 11
10.000000
 21
-1.200000
  0
LINE
  8
0
 10
10.000000
 20
-1.200000
 11
10.000000
 21
-5.000000
  0
LINE
  8
0
 10
15.000000
 20
-1.200000
 11
15.000000
 21
5.000000
  0
LINE
  8
0
 10
15.000000
 20
5.000000
 11
10.000000
 21
5.000000
  0
LINE
  8
0
 10
10.000000
 20
5.000000
 11
9.938440
 21
4.217840
  0
LINE
  8
0
 10
9.938440
 20
4.217840
 11
15.000000
 21
-1.200000
  0
LINE
  8
0
 10
15.000000
 20
8.780480
 11
10.000000
 21
8.780480
  0
LINE
  8
0
 10
10.000000
 20
8.780480
 11
9.876880
 21
6.564340
  0
LINE
  8
0
 10
9.876880
 20
6.564340
 11
9.938440
 21
5.782160
  0
LINE
  8
0
 10
9.938440
 20
5.782160
 11
15.000000
 21
8.780480
  0
LINE
  8
0
 10
10.000000
 20
8.780480
 11
15.000000
 21
8.780480
  0
LINE
  8
0
 10
15.000000
 20
8.780480
 11
15.000000
 21
15.000000
  0
LINE
  8
0
 10
15.000000
 20
15.000000
 11
10.000000
 21
15.000000
  0
LINE
  8
0
 10
10.000000
 20
15.000000
 11
10.000000
 21
8.780480
  0
LINE
  8
0
 10
15.000000
 20
-5.000000
 11
21.335000
 21
-3.780820
  0
LINE
  8
0
 10
21.335000
 20
-3.780820
 11
18.918260
 21
-2.369420
  0
LINE
  8
0
 10
18.918260
 20
-2.369420
 11
15.000000
 21
-1.200000
  0
LINE
  8
0
 10
15.000000
 20
-1.200000
 11
15.000000
 21
-5.000000
  0
LINE
  8
0
 10
15.000000
 20
-1.200000
 11
18.918260
 21
-2.369420
  0
LINE
  8
0
 10
18.918260
 20
-2.369420
 11
18.072400
 21
3.034140
  0
LINE
  8
0
 10
18.072400
 20
3.034140
 11
15.000000
 21
5.000000
  0
LINE
  8
0
 10
15.000000
 20
5.000000
 11
15.000000
 21
-1.200000
  0
LINE
  8
0
 10
15.000000
 20
5.000000
 11
18.072400
 21
3.034140
  0
LINE
  8
0
 10
18.072400
 20
3.034140
 11
18.475200
 21
11.179840
  0
LINE
  8
0
 10
18.475200
 20
11.179840
 11
15.000000
 21
8.780480
  0
LINE
  8
0
 10
15.000000
 20
8.780480
 11
15.000000
 21
5.000000
  0
LINE
  8
0
 10
15.000000
 20
8.780480
 11
18.475200
 21
11.179840
  0
LINE
  8
0
 10
18.475200
 20
11.179840
 11
18.998820
 21
13.357400
  0
LINE
  8
0
 10
18.998820
 20
13.357400
 11
15.000000
 21
15.000000
  0
LINE
  8
0
 10
15.000000
 20
15.000000
 11
15.000000
 21
8.780480
  0
LINE
  8
0
 10
83.852700
 20
-3.983920
 11
90.000000
 21
-5.000000
  0
LINE
  8
0
 10
90.000000
 20
-5.000000
 11
90.000000
 21
-1.200000
  0
LINE
  8
0
 10
90.000000
 20
-1.200000
 11
85.626940
 21
-2.455480
  0
LINE
  8
0
 10
85.626940
 20
-2.455480
 11
83.852700
 21
-3.983920
  0
LINE
  8
0
 10
85.626940
 20
-2.455480
 11
90.000000
 21
-1.200000
  0
LINE
  8
0
 10
90.000000
 20
-1.200000
 11
90.000000
 21
5.000000
  0
LINE
  8
0
 10
90.000000
 20
5.000000
 11
87.071080
 21
2.790720
  0
LINE
  8
0
 10
87.071080
 20
2.790720
 11
85.626940
 21
-2.455480
  0
LINE
  8
0
 10
87.071080
 20
2.790720
 11
90.000000
 21
5.000000
  0
LINE
  8
0
 10
90.000000
 20
5.000000
 11
90.000000
 21
8.780480
  0
LINE
  8
0
 10
90.000000
 20
8.780480
 11
86.741000
 21
10.226300
  0
LINE
  8
0
 10
86.741000
 20
10.226300
 11
87.071080
 21
2.790720
  0
LINE
  8
0
 10
86.741000
 20
10.226300
 11
90.000000
 21
8.780480
  0
LINE
  8
0
 10
90.000000
 20
8.780480
 11
90.000000
 21
15.000000
  0
LINE
  8
0
 10
90.000000
 20
15.000000
 11
84.842980
 21
13.407060
  0
LINE
  8
0
 10
84.842980
 20
13.407060
 11
86.741000
 21
10.226300
  0
LINE
  8
0
 10
90.000000
 20
-5.000000
 11
95.000000
 21
-5.000000
  0
LINE
  8
0
 10
95.000000
 20
-5.000000
 11
95.000000
 21
-1.200000
  0
LINE
  8
0
 10
95.000000
 20
-1.200000
 11
90.000000
 21
-1.200000
  0
LINE
  8
0
 10
90.000000
 20
-1.200000
 11
90.000000
 21
-5.000000
  0
LINE
  8
0
 10
90.000000
 20
-1.200000
 11
95.000000
 21
-1.200000
  0
LINE
  8
0
 10
95.000000
 20
-1.200000
 11
95.000000
 21
5.000000
  0
LINE
  8
0
 10
95.000000
 20
5.000000
 11
90.000000
 21
5.000000
  0
LINE
  8
0
 10
90.000000
 20
5.000000
 11
90.000000
 21
-1.200000
  0
LINE
  8
0
 10
90.000000
 20
5.000000
 11
95.000000
 21
5.000000
  0
LINE
  8
0
 10
95.000000
 20
5.000000
 11
95.000000
 21
8.780480
  0
LINE
  8
0
 10
95.000000
 20
8.780480
 11
90.000000
 21
8.780480
  0
LINE
  8
0
 10
90.000000
 20
8.780480
 11
90.000000
 21
5.000000
  0
LINE
  8
0
 10
90.000000
 20
8.780480
 11
95.000000
 21
8.780480
  0
LINE
  8
0
 10
95.000000
 20
8.780480
 11
95.000000
 21
15.000000
  0
LINE
  8
0
 10
95.000000
 20
15.000000
 11
90.000000
 21
15.000000
  0
LINE
  8
0
 10
90.000000
 20
15.000000
 11
90.000000
 21
8.780480
  0
LINE
  8
0
 10
95.000000
 20
-5.000000
 11
98.750980
 21
-5.000000
  0
LINE
  8
0
 10
98.750980
 20
-5.000000
 11
100.359980
 21
0.317860
  0
LINE
  8
0
 10
100.359980
 20
0.317860
 11
95.000000
 21
-1.200000
  0
LINE
  8
0
 10
95.000000
 20
-1.200000
 11
95.000000
 21
-5.000000
  0
LINE
  8
0
 10
95.000000
 20
-1.200000
 11
100.359980
 21
0.317860
  0
LINE
  8
0
 10
100.359980
 20
0.317860
 11
98.582960
 21
4.070040
  0
LINE
  8
0
 10
98.582960
 20
4.070040
 11
95.000000
 21
5.000000
  0
LINE
  8
0
 10
95.000000
 20
5.000000
 11
95.000000
 21
-1.200000
  0
LINE
  8
0
 10
95.000000
 20
5.000000
 11
98.582960
 21
4.070040
  0
LINE
  8
0
 10
98.582960
 20
4.070040
 11
98.750980
 21
8.780480
  0
LINE
  8
0
 10
98.750980
 20
8.780480
 11
95.000000
 21
8.780480
  0
LINE
  8
0
 10
95.000000
 20
8.780480
 11
95.000000
 21
5.000000
  0
LINE
  8
0
 10
95.000000
 20
8.780480
 11
98.750980
 21
8.780480
  0
LINE
  8
0
 10
98.750980
 20
8.780480
 11
98.750980
 21
15.000000
  0
LINE
  8
0
 10
98.750980
 20
15.000000
 11
95.000000
 21
15.000000
  0
LINE
  8
0
 10
95.000000
 20
15.000000
 11
95.000000
 21
8.780480
  0
LINE
  8
0
 10
98.750980
 20
-5.000000
 11
105.000000
 21
-5.000000
  0
LINE
  8
0
 10
105.000000
 20
-5.000000
 11
103.687840
 21
-1.202420
  0
LINE
  8
0
 10
103.687840
 20
-1.202420
 11
100.359980
 21
0.317860
  0
LINE
  8
0
 10
100.359980
 20
0.317860
 11
98.750980
 21
-5.000000
  0
LINE
  8
0
 10
105.000000
 20
-5.000000
 11
110.000000
 21
-5.000000
  0
LINE
  8
0
 10
110.000000
 20
-5.000000
 11
110.000000
 21
-1.200000
  0
LINE
  8
0
 10
110.000000
 20
-1.200000
 11
103.687840
 21
-1.202420
  0
LINE
  8
0
 10
103.687840
 20
-1.202420
 11
105.000000
 21
-5.000000
  0
LINE
  8
0
 10
110.000000
 20
-5.000000
 11
115.000000
 21
-5.000000
  0
LINE
  8
0
 10
115.000000
 20
-5.000000
 11
115.000000
 21
-1.200000
  0
LINE
  8
0
 10
115.000000
 20
-1.200000
 11
110.000000
 21
-1.200000
  0
LINE
  8
0
 10
110.000000
 20
-1.200000
 11
110.000000
 21
-5.000000
  0
LINE
  8
0
 10
115.000000
 20
-5.000000
 11
120.000000
 21
-5.000000
  0
LINE
  8
0
 10
120.000000
 20
-5.000000
 11
120.000000
 21
-1.200000
  0
LINE
  8
0
 10
120.000000
 20
-1.200000
 11
115.000000
 21
-1.200000
  0
LINE
  8
0
 10
115.000000
 20
-1.200000
 11
115.000000
 21
-5.000000
  0
LINE
  8
0
 10
120.000000
 20
-5.000000
 11
125.000000
 21
-5.000000
  0
LINE
  8
0
 10
125.000000
 20
-5.000000
 11
125.000000
 21
-1.200000
  0
LINE
  8
0
 10
125.000000
 20
-1.200000
 11
120.000000
 21
-1.200000
  0
LINE
  8
0
 10
120.000000
 20
-1.200000
 11
120.000000
 21
-5.000000
  0
LINE
  8
0
 10
125.000000
 20
-5.000000
 11
130.000000
 21
-5.000000
  0
LINE
  8
0
 10
130.000000
 20
-5.000000
 11
130.000000
 21
-1.200000
  0
LINE
  8
0
 10
130.000000
 20
-1.200000
 11
125.000000
 21
-1.200000
  0
LINE
  8
0
 10
125.000000
 20
-1.200000
 11
125.000000
 21
-5.000000
  0
LINE
  8
0
 10
130.000000
 20
-5.000000
 11
135.000000
 21
-5.000000
  0
LINE
  8
0
 10
135.000000
 20
-5.000000
 11
135.000000
 21
-1.200000
  0
LINE
  8
0
 10
135.000000
 20
-1.200000
 11
130.000000
 21
-1.200000
  0
LINE
  8
0
 10
130.000000
 20
-1.200000
 11
130.000000
 21
-5.000000
  0
ENDSEC
  0
EOF
