  0
SECTION
  2
ENTITIES
  0
CIRCLE
  8
1
 62
7
 10
0.000000
 20
0.000000
 40
40.147846
  0
CIRCLE
  8
1
 62
7
 10
18.677519
 20
23.235043
 40
40.147846
  0
CIRCLE
  8
1
 62
7
 10
212.132034
 20
263.895777
 40
40.147846
  0
CIRCLE
  8
1
 62
7
 10
596.144757
 20
741.614046
 40
40.147846
  0
CIRCLE
  8
1
 62
7
 10
633.499087
 20
788.083725
 40
40.147846
  0
CIRCLE
  8
1
 62
7
 10
919.238816
 20
1143.548369
 40
40.147846
  0
CIRCLE
  8
1
 62
7
 10
1210.966325
 20
1506.462728
 40
40.147846
  0
CIRCLE
  8
1
 62
7
 10
1246.484298
 20
1550.647440
 40
40.147846
  0
CIRCLE
  8
1
 62
7
 10
1626.345597
 20
2023.201777
 40
40.147846
  0
CIRCLE
  8
1
 62
7
 10
1825.788600
 20
2271.311818
 40
40.147846
  0
CIRCLE
  8
1
 62
7
 10
1844.466118
 20
2294.546861
 40
40.147846
  0
CIRCLE
  8
1
 62
7
 10
212.132034
 20
222.903567
 40
40.147846
  0
CIRCLE
  8
1
 62
7
 10
212.132034
 20
106.144556
 40
40.147846
  0
CIRCLE
  8
1
 62
7
 10
212.132034
 20
81.649658
 40
40.147846
  0
CIRCLE
  8
1
 62
7
 10
212.132034
 20
40.824829
 40
40.147846
  0
CIRCLE
  8
1
 62
7
 10
1626.345597
 20
1982.453698
 40
40.147846
  0
CIRCLE
  8
1
 62
7
 10
1626.345597
 20
938.971068
 40
40.147846
  0
CIRCLE
  8
1
 62
7
 10
1626.345597
 20
898.146239
 40
40.147846
  0
CIRCLE
  8
1
 62
7
 10
1626.345597
 20
857.321410
 40
40.147846
  0
CIRCLE
  8
1
 62
7
 10
-565.685425
 20
326.598632
 40
40.147846
  0
CIRCLE
  8
1
 62
7
 10
-547.007906
 20
349.833676
 40
40.147846
  0
CIRCLE
  8
1
 62
7
 10
-353.553391
 20
590.494410
 40
40.147846
  0
CIRCLE
  8
1
 62
7
 10
30.459332
 20
1068.212679
 40
40.147846
  0
CIRCLE
  8
1
 62
7
 10
67.813662
 20
1114.682357
 40
40.147846
  0
CIRCLE
  8
1
 62
7
 10
353.553391
 20
1470.147001
 40
40.147846
  0
CIRCLE
  8
1
 62
7
 10
645.280900
 20
1833.061360
 40
40.147846
  0
CIRCLE
  8
1
 62
7
 10
680.798873
 20
1877.246073
 40
40.147846
  0
CIRCLE
  8
1
 62
7
 10
1060.660172
 20
2349.800409
 40
40.147846
  0
CIRCLE
  8
1
 62
7
 10
1260.103175
 20
2597.910450
 40
40.147846
  0
CIRCLE
  8
1
 62
7
 10
1278.780693
 20
2621.145493
 40
40.147846
  0
CIRCLE
  8
1
 62
7
 10
-353.553391
 20
549.502199
 40
40.147846
  0
CIRCLE
  8
1
 62
7
 10
-353.553391
 20
432.743188
 40
40.147846
  0
CIRCLE
  8
1
 62
7
 10
-353.553391
 20
408.248290
 40
40.147846
  0
CIRCLE
  8
1
 62
7
 10
-353.553391
 20
367.423461
 40
40.147846
  0
CIRCLE
  8
1
 62
7
 10
1060.660172
 20
2309.052331
 40
40.147846
  0
CIRCLE
  8
1
 62
7
 10
1060.660172
 20
1265.569700
 40
40.147846
  0
CIRCLE
  8
1
 62
7
 10
1060.660172
 20
1224.744871
 40
40.147846
  0
CIRCLE
  8
1
 62
7
 10
1060.660172
 20
1183.920042
 40
40.147846
  0
CIRCLE
  8
1
 62
7
 10
-935.502272
 20
540.112488
 40
40.147846
  0
CIRCLE
  8
1
 62
7
 10
-916.824753
 20
563.347531
 40
40.147846
  0
CIRCLE
  8
1
 62
7
 10
-723.370237
 20
804.008266
 40
40.147846
  0
CIRCLE
  8
1
 62
7
 10
-339.357515
 20
1281.726535
 40
40.147846
  0
CIRCLE
  8
1
 62
7
 10
-302.003185
 20
1328.196213
 40
40.147846
  0
CIRCLE
  8
1
 62
7
 10
-16.263456
 20
1683.660857
 40
40.147846
  0
CIRCLE
  8
1
 62
7
 10
275.464053
 20
2046.575216
 40
40.147846
  0
CIRCLE
  8
1
 62
7
 10
310.982027
 20
2090.759929
 40
40.147846
  0
CIRCLE
  8
1
 62
7
 10
690.843325
 20
2563.314265
 40
40.147846
  0
CIRCLE
  8
1
 62
7
 10
890.286328
 20
2811.424306
 40
40.147846
  0
CIRCLE
  8
1
 62
7
 10
908.963847
 20
2834.659349
 40
40.147846
  0
CIRCLE
  8
1
 62
7
 10
-723.370237
 20
763.016055
 40
40.147846
  0
CIRCLE
  8
1
 62
7
 10
-723.370237
 20
646.257044
 40
40.147846
  0
CIRCLE
  8
1
 62
7
 10
-723.370237
 20
621.762146
 40
40.147846
  0
CIRCLE
  8
1
 62
7
 10
-723.370237
 20
580.937317
 40
40.147846
  0
CIRCLE
  8
1
 62
7
 10
690.843325
 20
2522.566187
 40
40.147846
  0
CIRCLE
  8
1
 62
7
 10
690.843325
 20
1479.083556
 40
40.147846
  0
CIRCLE
  8
1
 62
7
 10
690.843325
 20
1438.258727
 40
40.147846
  0
CIRCLE
  8
1
 62
7
 10
690.843325
 20
1397.433898
 40
40.147846
  0
CIRCLE
  8
1
 62
7
 10
-1501.187696
 20
866.711121
 40
40.147846
  0
CIRCLE
  8
1
 62
7
 10
-1482.510178
 20
889.946164
 40
40.147846
  0
CIRCLE
  8
1
 62
7
 10
-1289.055662
 20
1130.606898
 40
40.147846
  0
CIRCLE
  8
1
 62
7
 10
-905.042940
 20
1608.325167
 40
40.147846
  0
CIRCLE
  8
1
 62
7
 10
-867.688610
 20
1654.794845
 40
40.147846
  0
CIRCLE
  8
1
 62
7
 10
-581.948881
 20
2010.259489
 40
40.147846
  0
CIRCLE
  8
1
 62
7
 10
-290.221372
 20
2373.173849
 40
40.147846
  0
CIRCLE
  8
1
 62
7
 10
-254.703398
 20
2417.358561
 40
40.147846
  0
CIRCLE
  8
1
 62
7
 10
125.157900
 20
2889.912897
 40
40.147846
  0
CIRCLE
  8
1
 62
7
 10
324.600903
 20
3138.022938
 40
40.147846
  0
CIRCLE
  8
1
 62
7
 10
343.278422
 20
3161.257981
 40
40.147846
  0
CIRCLE
  8
1
 62
7
 10
-1289.055662
 20
1089.614687
 40
40.147846
  0
CIRCLE
  8
1
 62
7
 10
-1289.055662
 20
972.855676
 40
40.147846
  0
CIRCLE
  8
1
 62
7
 10
-1289.055662
 20
948.360779
 40
40.147846
  0
CIRCLE
  8
1
 62
7
 10
-1289.055662
 20
907.535950
 40
40.147846
  0
CIRCLE
  8
1
 62
7
 10
125.157900
 20
2849.164819
 40
40.147846
  0
CIRCLE
  8
1
 62
7
 10
125.157900
 20
1805.682189
 40
40.147846
  0
CIRCLE
  8
1
 62
7
 10
125.157900
 20
1764.857360
 40
40.147846
  0
CIRCLE
  8
1
 62
7
 10
125.157900
 20
1724.032531
 40
40.147846
  0
CIRCLE
  8
1
 62
7
 10
397.040458
 20
116.146639
 40
40.147846
  0
CIRCLE
  8
1
 62
7
 10
-1473.964085
 20
1196.371615
 40
40.147846
  0
CIRCLE
  8
1
 62
7
 10
1811.254020
 20
1875.696771
 40
40.147846
  0
CIRCLE
  8
1
 62
7
 10
-59.750523
 20
2955.921747
 40
40.147846
  0
CIRCLE
  8
1
 62
7
 10
345.421663
 20
-36.129974
 40
40.147846
  0
CIRCLE
  8
1
 62
7
 10
397.040458
 20
-65.932099
 40
40.147846
  0
CIRCLE
  8
1
 62
7
 10
-1422.345290
 20
984.490752
 40
40.147846
  0
CIRCLE
  8
1
 62
7
 10
-1473.964085
 20
1014.292878
 40
40.147846
  0
CIRCLE
  8
1
 62
7
 10
1759.635225
 20
780.366607
 40
40.147846
  0
CIRCLE
  8
1
 62
7
 10
1811.254020
 20
750.564482
 40
40.147846
  0
CIRCLE
  8
1
 62
7
 10
-8.131728
 20
1800.987333
 40
40.147846
  0
CIRCLE
  8
1
 62
7
 10
-59.750523
 20
1830.789458
 40
40.147846
  0
CIRCLE
  8
1
 62
7
 10
345.421663
 20
-76.954803
 40
40.147846
  0
CIRCLE
  8
1
 62
7
 10
-1422.345290
 20
943.665923
 40
40.147846
  0
CIRCLE
  8
1
 62
7
 10
1759.635225
 20
739.541778
 40
40.147846
  0
CIRCLE
  8
1
 62
7
 10
-8.131728
 20
1760.162504
 40
40.147846
  0
LINE
  8
1
 62
7
 10
1781.866895
 20
-264.501257
 11
1781.866895
 21
81.484385
  0
TEXT
  8
1
 62
7
 10
1781.866895
 20
81.484385
 40
80.295692
  1
Z
  0
LINE
  8
1
 62
7
 10
1781.866895
 20
-264.501257
 11
2081.499250
 21
-91.508436
  0
TEXT
  8
1
 62
7
 10
2081.499250
 20
-91.508436
 40
80.295692
  1
X
  0
LINE
  8
1
 62
7
 10
1781.866895
 20
-264.501257
 11
1482.234539
 21
-91.508436
  0
TEXT
  8
1
 62
7
 10
1482.234539
 20
-91.508436
 40
80.295692
  1
Y
  0
LINE
  8
1
 62
7
 10
345.421663
 20
-76.954803
 11
425.717354
 21
-213.457478
  0
LINE
  8
1
 62
7
 10
345.421663
 20
-76.954803
 11
265.125971
 21
-213.457478
  0
LINE
  8
1
 62
7
 10
224.978125
 20
-213.457478
 11
465.865200
 21
-213.457478
  0
LINE
  8
1
 62
7
 10
-1422.345290
 20
943.665923
 11
-1342.049599
 21
807.163248
  0
LINE
  8
1
 62
7
 10
-1422.345290
 20
943.665923
 11
-1502.640982
 21
807.163248
  0
LINE
  8
1
 62
7
 10
-1542.788828
 20
807.163248
 11
-1301.901753
 21
807.163248
  0
LINE
  8
1
 62
7
 10
1759.635225
 20
739.541778
 11
1839.930917
 21
603.039102
  0
LINE
  8
1
 62
7
 10
1759.635225
 20
739.541778
 11
1679.339533
 21
603.039102
  0
LINE
  8
1
 62
7
 10
1639.191688
 20
603.039102
 11
1880.078762
 21
603.039102
  0
LINE
  8
1
 62
7
 10
-8.131728
 20
1760.162504
 11
72.163964
 21
1623.659829
  0
LINE
  8
1
 62
7
 10
-8.131728
 20
1760.162504
 11
-88.427420
 21
1623.659829
  0
LINE
  8
1
 62
7
 10
-128.575265
 20
1623.659829
 11
112.311809
 21
1623.659829
  0
LINE
  8
2
 62
5
 10
0.000000
 20
0.000000
 11
18.677519
 21
23.235043
  0
LINE
  8
2
 62
5
 10
18.677519
 20
23.235043
 11
212.132034
 21
263.895777
  0
LINE
  8
2
 62
5
 10
212.132034
 20
263.895777
 11
596.144757
 21
741.614046
  0
LINE
  8
2
 62
5
 10
596.144757
 20
741.614046
 11
633.499087
 21
788.083725
  0
LINE
  8
2
 62
5
 10
633.499087
 20
788.083725
 11
919.238816
 21
1143.548369
  0
LINE
  8
2
 62
5
 10
919.238816
 20
1143.548369
 11
1210.966325
 21
1506.462728
  0
LINE
  8
2
 62
5
 10
1210.966325
 20
1506.462728
 11
1246.484298
 21
1550.647440
  0
LINE
  8
2
 62
5
 10
1246.484298
 20
1550.647440
 11
1626.345597
 21
2023.201777
  0
LINE
  8
2
 62
5
 10
1626.345597
 20
2023.201777
 11
1825.788600
 21
2271.311818
  0
LINE
  8
2
 62
5
 10
1825.788600
 20
2271.311818
 11
1844.466118
 21
2294.546861
  0
LINE
  8
2
 62
5
 10
212.132034
 20
263.895777
 11
212.132034
 21
222.903567
  0
LINE
  8
2
 62
5
 10
212.132034
 20
222.903567
 11
212.132034
 21
106.144556
  0
LINE
  8
2
 62
5
 10
212.132034
 20
106.144556
 11
212.132034
 21
81.649658
  0
LINE
  8
2
 62
5
 10
212.132034
 20
81.649658
 11
212.132034
 21
40.824829
  0
LINE
  8
2
 62
5
 10
1626.345597
 20
2023.201777
 11
1626.345597
 21
1982.453698
  0
LINE
  8
2
 62
5
 10
1626.345597
 20
1982.453698
 11
1626.345597
 21
938.971068
  0
LINE
  8
2
 62
5
 10
1626.345597
 20
938.971068
 11
1626.345597
 21
898.146239
  0
LINE
  8
2
 62
5
 10
1626.345597
 20
898.146239
 11
1626.345597
 21
857.321410
  0
LINE
  8
2
 62
5
 10
919.238816
 20
1143.548369
 11
1626.345597
 21
938.971068
  0
LINE
  8
2
 62
5
 10
-565.685425
 20
326.598632
 11
-547.007906
 21
349.833676
  0
LINE
  8
2
 62
5
 10
-547.007906
 20
349.833676
 11
-353.553391
 21
590.494410
  0
LINE
  8
2
 62
5
 10
-353.553391
 20
590.494410
 11
30.459332
 21
1068.212679
  0
LINE
  8
2
 62
5
 10
30.459332
 20
1068.212679
 11
67.813662
 21
1114.682357
  0
LINE
  8
2
 62
5
 10
67.813662
 20
1114.682357
 11
353.553391
 21
1470.147001
  0
LINE
  8
2
 62
5
 10
353.553391
 20
1470.147001
 11
645.280900
 21
1833.061360
  0
LINE
  8
2
 62
5
 10
645.280900
 20
1833.061360
 11
680.798873
 21
1877.246073
  0
LINE
  8
2
 62
5
 10
680.798873
 20
1877.246073
 11
1060.660172
 21
2349.800409
  0
LINE
  8
2
 62
5
 10
1060.660172
 20
2349.800409
 11
1260.103175
 21
2597.910450
  0
LINE
  8
2
 62
5
 10
1260.103175
 20
2597.910450
 11
1278.780693
 21
2621.145493
  0
LINE
  8
2
 62
5
 10
-353.553391
 20
590.494410
 11
-353.553391
 21
549.502199
  0
LINE
  8
2
 62
5
 10
-353.553391
 20
549.502199
 11
-353.553391
 21
432.743188
  0
LINE
  8
2
 62
5
 10
-353.553391
 20
432.743188
 11
-353.553391
 21
408.248290
  0
LINE
  8
2
 62
5
 10
-353.553391
 20
408.248290
 11
-353.553391
 21
367.423461
  0
LINE
  8
2
 62
5
 10
1060.660172
 20
2349.800409
 11
1060.660172
 21
2309.052331
  0
LINE
  8
2
 62
5
 10
1060.660172
 20
2309.052331
 11
1060.660172
 21
1265.569700
  0
LINE
  8
2
 62
5
 10
1060.660172
 20
1265.569700
 11
1060.660172
 21
1224.744871
  0
LINE
  8
2
 62
5
 10
1060.660172
 20
1224.744871
 11
1060.660172
 21
1183.920042
  0
LINE
  8
2
 62
5
 10
353.553391
 20
1470.147001
 11
1060.660172
 21
1265.569700
  0
LINE
  8
2
 62
5
 10
-935.502272
 20
540.112488
 11
-916.824753
 21
563.347531
  0
LINE
  8
2
 62
5
 10
-916.824753
 20
563.347531
 11
-723.370237
 21
804.008266
  0
LINE
  8
2
 62
5
 10
-723.370237
 20
804.008266
 11
-339.357515
 21
1281.726535
  0
LINE
  8
2
 62
5
 10
-339.357515
 20
1281.726535
 11
-302.003185
 21
1328.196213
  0
LINE
  8
2
 62
5
 10
-302.003185
 20
1328.196213
 11
-16.263456
 21
1683.660857
  0
LINE
  8
2
 62
5
 10
-16.263456
 20
1683.660857
 11
275.464053
 21
2046.575216
  0
LINE
  8
2
 62
5
 10
275.464053
 20
2046.575216
 11
310.982027
 21
2090.759929
  0
LINE
  8
2
 62
5
 10
310.982027
 20
2090.759929
 11
690.843325
 21
2563.314265
  0
LINE
  8
2
 62
5
 10
690.843325
 20
2563.314265
 11
890.286328
 21
2811.424306
  0
LINE
  8
2
 62
5
 10
890.286328
 20
2811.424306
 11
908.963847
 21
2834.659349
  0
LINE
  8
2
 62
5
 10
-723.370237
 20
804.008266
 11
-723.370237
 21
763.016055
  0
LINE
  8
2
 62
5
 10
-723.370237
 20
763.016055
 11
-723.370237
 21
646.257044
  0
LINE
  8
2
 62
5
 10
-723.370237
 20
646.257044
 11
-723.370237
 21
621.762146
  0
LINE
  8
2
 62
5
 10
-723.370237
 20
621.762146
 11
-723.370237
 21
580.937317
  0
LINE
  8
2
 62
5
 10
690.843325
 20
2563.314265
 11
690.843325
 21
2522.566187
  0
LINE
  8
2
 62
5
 10
690.843325
 20
2522.566187
 11
690.843325
 21
1479.083556
  0
LINE
  8
2
 62
5
 10
690.843325
 20
1479.083556
 11
690.843325
 21
1438.258727
  0
LINE
  8
2
 62
5
 10
690.843325
 20
1438.258727
 11
690.843325
 21
1397.433898
  0
LINE
  8
2
 62
5
 10
-16.263456
 20
1683.660857
 11
690.843325
 21
1479.083556
  0
LINE
  8
2
 62
5
 10
-1501.187696
 20
866.711121
 11
-1482.510178
 21
889.946164
  0
LINE
  8
2
 62
5
 10
-1482.510178
 20
889.946164
 11
-1289.055662
 21
1130.606898
  0
LINE
  8
2
 62
5
 10
-1289.055662
 20
1130.606898
 11
-905.042940
 21
1608.325167
  0
LINE
  8
2
 62
5
 10
-905.042940
 20
1608.325167
 11
-867.688610
 21
1654.794845
  0
LINE
  8
2
 62
5
 10
-867.688610
 20
1654.794845
 11
-581.948881
 21
2010.259489
  0
LINE
  8
2
 62
5
 10
-581.948881
 20
2010.259489
 11
-290.221372
 21
2373.173849
  0
LINE
  8
2
 62
5
 10
-290.221372
 20
2373.173849
 11
-254.703398
 21
2417.358561
  0
LINE
  8
2
 62
5
 10
-254.703398
 20
2417.358561
 11
125.157900
 21
2889.912897
  0
LINE
  8
2
 62
5
 10
125.157900
 20
2889.912897
 11
324.600903
 21
3138.022938
  0
LINE
  8
2
 62
5
 10
324.600903
 20
3138.022938
 11
343.278422
 21
3161.257981
  0
LINE
  8
2
 62
5
 10
-1289.055662
 20
1130.606898
 11
-1289.055662
 21
1089.614687
  0
LINE
  8
2
 62
5
 10
-1289.055662
 20
1089.614687
 11
-1289.055662
 21
972.855676
  0
LINE
  8
2
 62
5
 10
-1289.055662
 20
972.855676
 11
-1289.055662
 21
948.360779
  0
LINE
  8
2
 62
5
 10
-1289.055662
 20
948.360779
 11
-1289.055662
 21
907.535950
  0
LINE
  8
2
 62
5
 10
125.157900
 20
2889.912897
 11
125.157900
 21
2849.164819
  0
LINE
  8
2
 62
5
 10
125.157900
 20
2849.164819
 11
125.157900
 21
1805.682189
  0
LINE
  8
2
 62
5
 10
125.157900
 20
1805.682189
 11
125.157900
 21
1764.857360
  0
LINE
  8
2
 62
5
 10
125.157900
 20
1764.857360
 11
125.157900
 21
1724.032531
  0
LINE
  8
2
 62
5
 10
-581.948881
 20
2010.259489
 11
125.157900
 21
1805.682189
  0
LINE
  8
2
 62
5
 10
397.040458
 20
116.146639
 11
212.132034
 21
222.903567
  0
LINE
  8
2
 62
5
 10
212.132034
 20
222.903567
 11
-353.553391
 21
549.502199
  0
LINE
  8
2
 62
5
 10
-353.553391
 20
549.502199
 11
-723.370237
 21
763.016055
  0
LINE
  8
2
 62
5
 10
-723.370237
 20
763.016055
 11
-1289.055662
 21
1089.614687
  0
LINE
  8
2
 62
5
 10
-1289.055662
 20
1089.614687
 11
-1473.964085
 21
1196.371615
  0
LINE
  8
2
 62
5
 10
1811.254020
 20
1875.696771
 11
1626.345597
 21
1982.453698
  0
LINE
  8
2
 62
5
 10
1626.345597
 20
1982.453698
 11
1060.660172
 21
2309.052331
  0
LINE
  8
2
 62
5
 10
1060.660172
 20
2309.052331
 11
690.843325
 21
2522.566187
  0
LINE
  8
2
 62
5
 10
690.843325
 20
2522.566187
 11
125.157900
 21
2849.164819
  0
LINE
  8
2
 62
5
 10
125.157900
 20
2849.164819
 11
-59.750523
 21
2955.921747
  0
LINE
  8
2
 62
5
 10
397.040458
 20
-65.932099
 11
345.421663
 21
-36.129974
  0
LINE
  8
2
 62
5
 10
345.421663
 20
-36.129974
 11
212.132034
 21
40.824829
  0
LINE
  8
2
 62
5
 10
212.132034
 20
40.824829
 11
-353.553391
 21
367.423461
  0
LINE
  8
2
 62
5
 10
-353.553391
 20
367.423461
 11
-723.370237
 21
580.937317
  0
LINE
  8
2
 62
5
 10
-723.370237
 20
580.937317
 11
-1289.055662
 21
907.535950
  0
LINE
  8
2
 62
5
 10
-1289.055662
 20
907.535950
 11
-1422.345290
 21
984.490752
  0
LINE
  8
2
 62
5
 10
-1422.345290
 20
984.490752
 11
-1473.964085
 21
1014.292878
  0
LINE
  8
2
 62
5
 10
345.421663
 20
-36.129974
 11
345.421663
 21
-76.954803
  0
LINE
  8
2
 62
5
 10
-1422.345290
 20
984.490752
 11
-1422.345290
 21
943.665923
  0
LINE
  8
2
 62
5
 10
1811.254020
 20
750.564482
 11
1759.635225
 21
780.366607
  0
LINE
  8
2
 62
5
 10
1759.635225
 20
780.366607
 11
1626.345597
 21
857.321410
  0
LINE
  8
2
 62
5
 10
1626.345597
 20
857.321410
 11
1060.660172
 21
1183.920042
  0
LINE
  8
2
 62
5
 10
1060.660172
 20
1183.920042
 11
690.843325
 21
1397.433898
  0
LINE
  8
2
 62
5
 10
690.843325
 20
1397.433898
 11
125.157900
 21
1724.032531
  0
LINE
  8
2
 62
5
 10
125.157900
 20
1724.032531
 11
-8.131728
 21
1800.987333
  0
LINE
  8
2
 62
5
 10
-8.131728
 20
1800.987333
 11
-59.750523
 21
1830.789458
  0
LINE
  8
2
 62
5
 10
1759.635225
 20
780.366607
 11
1759.635225
 21
739.541778
  0
LINE
  8
2
 62
5
 10
-8.131728
 20
1800.987333
 11
-8.131728
 21
1760.162504
  0
LINE
  8
3
 62
4
 10
18.677519
 20
23.235043
 11
92.438730
 21
37.430395
  0
LINE
  8
3
 62
4
 10
18.677519
 20
23.235043
 11
92.438730
 21
94.211802
  0
LINE
  8
3
 62
4
 10
18.677519
 20
23.235043
 11
166.199941
 21
108.407153
  0
LINE
  8
3
 62
4
 10
18.677519
 20
23.235043
 11
58.825364
 21
-97.208494
  0
LINE
  8
3
 62
4
 10
18.677519
 20
23.235043
 11
-21.470327
 21
-97.208494
  0
LINE
  8
3
 62
4
 10
18.677519
 20
23.235043
 11
18.677519
 21
-217.652031
  0
LINE
  8
3
 62
4
 10
596.144757
 20
741.614046
 11
669.905968
 21
755.809398
  0
LINE
  8
3
 62
4
 10
596.144757
 20
741.614046
 11
669.905968
 21
812.590805
  0
LINE
  8
3
 62
4
 10
596.144757
 20
741.614046
 11
743.667179
 21
826.786157
  0
LINE
  8
3
 62
4
 10
596.144757
 20
741.614046
 11
636.292602
 21
621.170509
  0
LINE
  8
3
 62
4
 10
596.144757
 20
741.614046
 11
555.996911
 21
621.170509
  0
LINE
  8
3
 62
4
 10
596.144757
 20
741.614046
 11
596.144757
 21
500.726972
  0
LINE
  8
3
 62
4
 10
633.499087
 20
788.083725
 11
707.260298
 21
802.279076
  0
LINE
  8
3
 62
4
 10
633.499087
 20
788.083725
 11
707.260298
 21
859.060483
  0
LINE
  8
3
 62
4
 10
633.499087
 20
788.083725
 11
781.021509
 21
873.255835
  0
LINE
  8
3
 62
4
 10
633.499087
 20
788.083725
 11
673.646932
 21
667.640187
  0
LINE
  8
3
 62
4
 10
633.499087
 20
788.083725
 11
593.351241
 21
667.640187
  0
LINE
  8
3
 62
4
 10
633.499087
 20
788.083725
 11
633.499087
 21
547.196650
  0
LINE
  8
3
 62
4
 10
1210.966325
 20
1506.462728
 11
1284.727536
 21
1520.658080
  0
LINE
  8
3
 62
4
 10
1210.966325
 20
1506.462728
 11
1284.727536
 21
1577.439486
  0
LINE
  8
3
 62
4
 10
1210.966325
 20
1506.462728
 11
1358.488747
 21
1591.634838
  0
LINE
  8
3
 62
4
 10
1210.966325
 20
1506.462728
 11
1251.114171
 21
1386.019191
  0
LINE
  8
3
 62
4
 10
1210.966325
 20
1506.462728
 11
1170.818479
 21
1386.019191
  0
LINE
  8
3
 62
4
 10
1210.966325
 20
1506.462728
 11
1210.966325
 21
1265.575653
  0
LINE
  8
3
 62
4
 10
1246.484298
 20
1550.647440
 11
1320.245509
 21
1564.842792
  0
LINE
  8
3
 62
4
 10
1246.484298
 20
1550.647440
 11
1320.245509
 21
1621.624199
  0
LINE
  8
3
 62
4
 10
1246.484298
 20
1550.647440
 11
1394.006721
 21
1635.819551
  0
LINE
  8
3
 62
4
 10
1246.484298
 20
1550.647440
 11
1286.632144
 21
1430.203903
  0
LINE
  8
3
 62
4
 10
1246.484298
 20
1550.647440
 11
1206.336453
 21
1430.203903
  0
LINE
  8
3
 62
4
 10
1246.484298
 20
1550.647440
 11
1246.484298
 21
1309.760366
  0
LINE
  8
3
 62
4
 10
1825.788600
 20
2271.311818
 11
1899.549811
 21
2285.507169
  0
LINE
  8
3
 62
4
 10
1825.788600
 20
2271.311818
 11
1899.549811
 21
2342.288576
  0
LINE
  8
3
 62
4
 10
1825.788600
 20
2271.311818
 11
1973.311022
 21
2356.483928
  0
LINE
  8
3
 62
4
 10
1825.788600
 20
2271.311818
 11
1865.936446
 21
2150.868280
  0
LINE
  8
3
 62
4
 10
1825.788600
 20
2271.311818
 11
1785.640754
 21
2150.868280
  0
LINE
  8
3
 62
4
 10
1825.788600
 20
2271.311818
 11
1825.788600
 21
2030.424743
  0
LINE
  8
3
 62
4
 10
-547.007906
 20
349.833676
 11
-473.246695
 21
364.029027
  0
LINE
  8
3
 62
4
 10
-547.007906
 20
349.833676
 11
-473.246695
 21
420.810434
  0
LINE
  8
3
 62
4
 10
-547.007906
 20
349.833676
 11
-399.485484
 21
435.005786
  0
LINE
  8
3
 62
4
 10
-547.007906
 20
349.833676
 11
-506.860061
 21
229.390138
  0
LINE
  8
3
 62
4
 10
-547.007906
 20
349.833676
 11
-587.155752
 21
229.390138
  0
LINE
  8
3
 62
4
 10
-547.007906
 20
349.833676
 11
-547.007906
 21
108.946601
  0
LINE
  8
3
 62
4
 10
30.459332
 20
1068.212679
 11
104.220543
 21
1082.408031
  0
LINE
  8
3
 62
4
 10
30.459332
 20
1068.212679
 11
104.220543
 21
1139.189437
  0
LINE
  8
3
 62
4
 10
30.459332
 20
1068.212679
 11
177.981754
 21
1153.384789
  0
LINE
  8
3
 62
4
 10
30.459332
 20
1068.212679
 11
70.607177
 21
947.769142
  0
LINE
  8
3
 62
4
 10
30.459332
 20
1068.212679
 11
-9.688514
 21
947.769142
  0
LINE
  8
3
 62
4
 10
30.459332
 20
1068.212679
 11
30.459332
 21
827.325604
  0
LINE
  8
3
 62
4
 10
67.813662
 20
1114.682357
 11
141.574873
 21
1128.877709
  0
LINE
  8
3
 62
4
 10
67.813662
 20
1114.682357
 11
141.574873
 21
1185.659115
  0
LINE
  8
3
 62
4
 10
67.813662
 20
1114.682357
 11
215.336084
 21
1199.854467
  0
LINE
  8
3
 62
4
 10
67.813662
 20
1114.682357
 11
107.961507
 21
994.238820
  0
LINE
  8
3
 62
4
 10
67.813662
 20
1114.682357
 11
27.665816
 21
994.238820
  0
LINE
  8
3
 62
4
 10
67.813662
 20
1114.682357
 11
67.813662
 21
873.795282
  0
LINE
  8
3
 62
4
 10
645.280900
 20
1833.061360
 11
719.042111
 21
1847.256712
  0
LINE
  8
3
 62
4
 10
645.280900
 20
1833.061360
 11
719.042111
 21
1904.038119
  0
LINE
  8
3
 62
4
 10
645.280900
 20
1833.061360
 11
792.803322
 21
1918.233470
  0
LINE
  8
3
 62
4
 10
645.280900
 20
1833.061360
 11
685.428746
 21
1712.617823
  0
LINE
  8
3
 62
4
 10
645.280900
 20
1833.061360
 11
605.133054
 21
1712.617823
  0
LINE
  8
3
 62
4
 10
645.280900
 20
1833.061360
 11
645.280900
 21
1592.174286
  0
LINE
  8
3
 62
4
 10
680.798873
 20
1877.246073
 11
754.560085
 21
1891.441424
  0
LINE
  8
3
 62
4
 10
680.798873
 20
1877.246073
 11
754.560085
 21
1948.222831
  0
LINE
  8
3
 62
4
 10
680.798873
 20
1877.246073
 11
828.321296
 21
1962.418183
  0
LINE
  8
3
 62
4
 10
680.798873
 20
1877.246073
 11
720.946719
 21
1756.802535
  0
LINE
  8
3
 62
4
 10
680.798873
 20
1877.246073
 11
640.651028
 21
1756.802535
  0
LINE
  8
3
 62
4
 10
680.798873
 20
1877.246073
 11
680.798873
 21
1636.358998
  0
LINE
  8
3
 62
4
 10
1260.103175
 20
2597.910450
 11
1333.864386
 21
2612.105802
  0
LINE
  8
3
 62
4
 10
1260.103175
 20
2597.910450
 11
1333.864386
 21
2668.887208
  0
LINE
  8
3
 62
4
 10
1260.103175
 20
2597.910450
 11
1407.625597
 21
2683.082560
  0
LINE
  8
3
 62
4
 10
1260.103175
 20
2597.910450
 11
1300.251021
 21
2477.466913
  0
LINE
  8
3
 62
4
 10
1260.103175
 20
2597.910450
 11
1219.955329
 21
2477.466913
  0
LINE
  8
3
 62
4
 10
1260.103175
 20
2597.910450
 11
1260.103175
 21
2357.023375
  0
LINE
  8
3
 62
4
 10
-916.824753
 20
563.347531
 11
-843.063542
 21
577.542883
  0
LINE
  8
3
 62
4
 10
-916.824753
 20
563.347531
 11
-843.063542
 21
634.324290
  0
LINE
  8
3
 62
4
 10
-916.824753
 20
563.347531
 11
-769.302331
 21
648.519642
  0
LINE
  8
3
 62
4
 10
-916.824753
 20
563.347531
 11
-876.676907
 21
442.903994
  0
LINE
  8
3
 62
4
 10
-916.824753
 20
563.347531
 11
-956.972599
 21
442.903994
  0
LINE
  8
3
 62
4
 10
-916.824753
 20
563.347531
 11
-916.824753
 21
322.460457
  0
LINE
  8
3
 62
4
 10
-339.357515
 20
1281.726535
 11
-265.596304
 21
1295.921886
  0
LINE
  8
3
 62
4
 10
-339.357515
 20
1281.726535
 11
-265.596304
 21
1352.703293
  0
LINE
  8
3
 62
4
 10
-339.357515
 20
1281.726535
 11
-191.835093
 21
1366.898645
  0
LINE
  8
3
 62
4
 10
-339.357515
 20
1281.726535
 11
-299.209669
 21
1161.282997
  0
LINE
  8
3
 62
4
 10
-339.357515
 20
1281.726535
 11
-379.505361
 21
1161.282997
  0
LINE
  8
3
 62
4
 10
-339.357515
 20
1281.726535
 11
-339.357515
 21
1040.839460
  0
LINE
  8
3
 62
4
 10
-302.003185
 20
1328.196213
 11
-228.241974
 21
1342.391565
  0
LINE
  8
3
 62
4
 10
-302.003185
 20
1328.196213
 11
-228.241974
 21
1399.172971
  0
LINE
  8
3
 62
4
 10
-302.003185
 20
1328.196213
 11
-154.480763
 21
1413.368323
  0
LINE
  8
3
 62
4
 10
-302.003185
 20
1328.196213
 11
-261.855339
 21
1207.752676
  0
LINE
  8
3
 62
4
 10
-302.003185
 20
1328.196213
 11
-342.151031
 21
1207.752676
  0
LINE
  8
3
 62
4
 10
-302.003185
 20
1328.196213
 11
-302.003185
 21
1087.309138
  0
LINE
  8
3
 62
4
 10
275.464053
 20
2046.575216
 11
349.225264
 21
2060.770568
  0
LINE
  8
3
 62
4
 10
275.464053
 20
2046.575216
 11
349.225264
 21
2117.551975
  0
LINE
  8
3
 62
4
 10
275.464053
 20
2046.575216
 11
422.986475
 21
2131.747326
  0
LINE
  8
3
 62
4
 10
275.464053
 20
2046.575216
 11
315.611899
 21
1926.131679
  0
LINE
  8
3
 62
4
 10
275.464053
 20
2046.575216
 11
235.316207
 21
1926.131679
  0
LINE
  8
3
 62
4
 10
275.464053
 20
2046.575216
 11
275.464053
 21
1805.688142
  0
LINE
  8
3
 62
4
 10
310.982027
 20
2090.759929
 11
384.743238
 21
2104.955280
  0
LINE
  8
3
 62
4
 10
310.982027
 20
2090.759929
 11
384.743238
 21
2161.736687
  0
LINE
  8
3
 62
4
 10
310.982027
 20
2090.759929
 11
458.504449
 21
2175.932039
  0
LINE
  8
3
 62
4
 10
310.982027
 20
2090.759929
 11
351.129873
 21
1970.316391
  0
LINE
  8
3
 62
4
 10
310.982027
 20
2090.759929
 11
270.834181
 21
1970.316391
  0
LINE
  8
3
 62
4
 10
310.982027
 20
2090.759929
 11
310.982027
 21
1849.872854
  0
LINE
  8
3
 62
4
 10
890.286328
 20
2811.424306
 11
964.047540
 21
2825.619658
  0
LINE
  8
3
 62
4
 10
890.286328
 20
2811.424306
 11
964.047540
 21
2882.401064
  0
LINE
  8
3
 62
4
 10
890.286328
 20
2811.424306
 11
1037.808751
 21
2896.596416
  0
LINE
  8
3
 62
4
 10
890.286328
 20
2811.424306
 11
930.434174
 21
2690.980769
  0
LINE
  8
3
 62
4
 10
890.286328
 20
2811.424306
 11
850.138483
 21
2690.980769
  0
LINE
  8
3
 62
4
 10
890.286328
 20
2811.424306
 11
890.286328
 21
2570.537231
  0
LINE
  8
3
 62
4
 10
-1482.510178
 20
889.946164
 11
-1408.748967
 21
904.141515
  0
LINE
  8
3
 62
4
 10
-1482.510178
 20
889.946164
 11
-1408.748967
 21
960.922922
  0
LINE
  8
3
 62
4
 10
-1482.510178
 20
889.946164
 11
-1334.987756
 21
975.118274
  0
LINE
  8
3
 62
4
 10
-1482.510178
 20
889.946164
 11
-1442.362332
 21
769.502626
  0
LINE
  8
3
 62
4
 10
-1482.510178
 20
889.946164
 11
-1522.658024
 21
769.502626
  0
LINE
  8
3
 62
4
 10
-1482.510178
 20
889.946164
 11
-1482.510178
 21
649.059089
  0
LINE
  8
3
 62
4
 10
-905.042940
 20
1608.325167
 11
-831.281729
 21
1622.520519
  0
LINE
  8
3
 62
4
 10
-905.042940
 20
1608.325167
 11
-831.281729
 21
1679.301926
  0
LINE
  8
3
 62
4
 10
-905.042940
 20
1608.325167
 11
-757.520518
 21
1693.497277
  0
LINE
  8
3
 62
4
 10
-905.042940
 20
1608.325167
 11
-864.895094
 21
1487.881630
  0
LINE
  8
3
 62
4
 10
-905.042940
 20
1608.325167
 11
-945.190786
 21
1487.881630
  0
LINE
  8
3
 62
4
 10
-905.042940
 20
1608.325167
 11
-905.042940
 21
1367.438092
  0
LINE
  8
3
 62
4
 10
-867.688610
 20
1654.794845
 11
-793.927399
 21
1668.990197
  0
LINE
  8
3
 62
4
 10
-867.688610
 20
1654.794845
 11
-793.927399
 21
1725.771604
  0
LINE
  8
3
 62
4
 10
-867.688610
 20
1654.794845
 11
-720.166188
 21
1739.966955
  0
LINE
  8
3
 62
4
 10
-867.688610
 20
1654.794845
 11
-827.540764
 21
1534.351308
  0
LINE
  8
3
 62
4
 10
-867.688610
 20
1654.794845
 11
-907.836456
 21
1534.351308
  0
LINE
  8
3
 62
4
 10
-867.688610
 20
1654.794845
 11
-867.688610
 21
1413.907771
  0
LINE
  8
3
 62
4
 10
-290.221372
 20
2373.173849
 11
-216.460161
 21
2387.369200
  0
LINE
  8
3
 62
4
 10
-290.221372
 20
2373.173849
 11
-216.460161
 21
2444.150607
  0
LINE
  8
3
 62
4
 10
-290.221372
 20
2373.173849
 11
-142.698949
 21
2458.345959
  0
LINE
  8
3
 62
4
 10
-290.221372
 20
2373.173849
 11
-250.073526
 21
2252.730311
  0
LINE
  8
3
 62
4
 10
-290.221372
 20
2373.173849
 11
-330.369218
 21
2252.730311
  0
LINE
  8
3
 62
4
 10
-290.221372
 20
2373.173849
 11
-290.221372
 21
2132.286774
  0
LINE
  8
3
 62
4
 10
-254.703398
 20
2417.358561
 11
-180.942187
 21
2431.553913
  0
LINE
  8
3
 62
4
 10
-254.703398
 20
2417.358561
 11
-180.942187
 21
2488.335319
  0
LINE
  8
3
 62
4
 10
-254.703398
 20
2417.358561
 11
-107.180976
 21
2502.530671
  0
LINE
  8
3
 62
4
 10
-254.703398
 20
2417.358561
 11
-214.555552
 21
2296.915024
  0
LINE
  8
3
 62
4
 10
-254.703398
 20
2417.358561
 11
-294.851244
 21
2296.915024
  0
LINE
  8
3
 62
4
 10
-254.703398
 20
2417.358561
 11
-254.703398
 21
2176.471486
  0
LINE
  8
3
 62
4
 10
324.600903
 20
3138.022938
 11
398.362115
 21
3152.218290
  0
LINE
  8
3
 62
4
 10
324.600903
 20
3138.022938
 11
398.362115
 21
3208.999697
  0
LINE
  8
3
 62
4
 10
324.600903
 20
3138.022938
 11
472.123326
 21
3223.195048
  0
LINE
  8
3
 62
4
 10
324.600903
 20
3138.022938
 11
364.748749
 21
3017.579401
  0
LINE
  8
3
 62
4
 10
324.600903
 20
3138.022938
 11
284.453058
 21
3017.579401
  0
LINE
  8
3
 62
4
 10
324.600903
 20
3138.022938
 11
324.600903
 21
2897.135864
  0
LINE
  8
3
 62
3
 10
212.132034
 20
263.895777
 11
254.715255
 21
272.090922
  0
LINE
  8
3
 62
3
 10
212.132034
 20
263.895777
 11
254.715255
 21
304.871501
  0
LINE
  8
3
 62
3
 10
212.132034
 20
263.895777
 11
297.298476
 21
313.066646
  0
LINE
  8
3
 62
3
 10
212.132034
 20
222.903567
 11
254.715255
 21
231.098711
  0
LINE
  8
3
 62
3
 10
212.132034
 20
222.903567
 11
254.715255
 21
263.879290
  0
LINE
  8
3
 62
3
 10
212.132034
 20
222.903567
 11
297.298476
 21
272.074435
  0
LINE
  8
3
 62
3
 10
297.298476
 20
313.066646
 11
297.298476
 21
272.074435
  0
LINE
  8
3
 62
3
 10
212.132034
 20
222.903567
 11
254.715255
 21
231.098711
  0
LINE
  8
3
 62
3
 10
212.132034
 20
222.903567
 11
254.715255
 21
263.879290
  0
LINE
  8
3
 62
3
 10
212.132034
 20
222.903567
 11
297.298476
 21
272.074435
  0
LINE
  8
3
 62
3
 10
212.132034
 20
106.144556
 11
254.715255
 21
114.339700
  0
LINE
  8
3
 62
3
 10
212.132034
 20
106.144556
 11
254.715255
 21
147.120279
  0
LINE
  8
3
 62
3
 10
212.132034
 20
106.144556
 11
297.298476
 21
155.315424
  0
LINE
  8
3
 62
3
 10
297.298476
 20
272.074435
 11
297.298476
 21
155.315424
  0
LINE
  8
3
 62
3
 10
212.132034
 20
106.144556
 11
254.715255
 21
114.339700
  0
LINE
  8
3
 62
3
 10
212.132034
 20
106.144556
 11
254.715255
 21
147.120279
  0
LINE
  8
3
 62
3
 10
212.132034
 20
106.144556
 11
297.298476
 21
155.315424
  0
LINE
  8
3
 62
3
 10
212.132034
 20
81.649658
 11
254.715255
 21
89.844803
  0
LINE
  8
3
 62
3
 10
212.132034
 20
81.649658
 11
254.715255
 21
122.625382
  0
LINE
  8
3
 62
3
 10
212.132034
 20
81.649658
 11
297.298476
 21
130.820526
  0
LINE
  8
3
 62
3
 10
297.298476
 20
155.315424
 11
297.298476
 21
130.820526
  0
LINE
  8
3
 62
3
 10
1626.345597
 20
2023.201777
 11
1668.928818
 21
2031.396922
  0
LINE
  8
3
 62
3
 10
1626.345597
 20
2023.201777
 11
1668.928818
 21
2064.177500
  0
LINE
  8
3
 62
3
 10
1626.345597
 20
2023.201777
 11
1711.512039
 21
2072.372645
  0
LINE
  8
3
 62
3
 10
1626.345597
 20
1982.453698
 11
1668.928818
 21
1990.648843
  0
LINE
  8
3
 62
3
 10
1626.345597
 20
1982.453698
 11
1668.928818
 21
2023.429422
  0
LINE
  8
3
 62
3
 10
1626.345597
 20
1982.453698
 11
1711.512039
 21
2031.624567
  0
LINE
  8
3
 62
3
 10
1711.512039
 20
2072.372645
 11
1711.512039
 21
2031.624567
  0
LINE
  8
3
 62
3
 10
1626.345597
 20
1982.453698
 11
1668.928818
 21
1990.648843
  0
LINE
  8
3
 62
3
 10
1626.345597
 20
1982.453698
 11
1668.928818
 21
2023.429422
  0
LINE
  8
3
 62
3
 10
1626.345597
 20
1982.453698
 11
1711.512039
 21
2031.624567
  0
LINE
  8
3
 62
3
 10
1626.345597
 20
938.971068
 11
1668.928818
 21
947.166213
  0
LINE
  8
3
 62
3
 10
1626.345597
 20
938.971068
 11
1668.928818
 21
979.946792
  0
LINE
  8
3
 62
3
 10
1626.345597
 20
938.971068
 11
1711.512039
 21
988.141936
  0
LINE
  8
3
 62
3
 10
1711.512039
 20
2031.624567
 11
1711.512039
 21
988.141936
  0
LINE
  8
3
 62
3
 10
1626.345597
 20
938.971068
 11
1668.928818
 21
947.166213
  0
LINE
  8
3
 62
3
 10
1626.345597
 20
938.971068
 11
1668.928818
 21
979.946792
  0
LINE
  8
3
 62
3
 10
1626.345597
 20
938.971068
 11
1711.512039
 21
988.141936
  0
LINE
  8
3
 62
3
 10
1626.345597
 20
898.146239
 11
1668.928818
 21
906.341384
  0
LINE
  8
3
 62
3
 10
1626.345597
 20
898.146239
 11
1668.928818
 21
939.121962
  0
LINE
  8
3
 62
3
 10
1626.345597
 20
898.146239
 11
1711.512039
 21
947.317107
  0
LINE
  8
3
 62
3
 10
1711.512039
 20
988.141936
 11
1711.512039
 21
947.317107
  0
LINE
  8
3
 62
3
 10
919.238816
 20
1143.548369
 11
961.822037
 21
1151.743514
  0
LINE
  8
3
 62
3
 10
919.238816
 20
1143.548369
 11
961.822037
 21
1184.524092
  0
LINE
  8
3
 62
3
 10
919.238816
 20
1143.548369
 11
1004.405258
 21
1192.719237
  0
LINE
  8
3
 62
3
 10
1626.345597
 20
938.971068
 11
1668.928818
 21
947.166213
  0
LINE
  8
3
 62
3
 10
1626.345597
 20
938.971068
 11
1668.928818
 21
979.946792
  0
LINE
  8
3
 62
3
 10
1626.345597
 20
938.971068
 11
1711.512039
 21
988.141936
  0
LINE
  8
3
 62
3
 10
1004.405258
 20
1192.719237
 11
1711.512039
 21
988.141936
  0
LINE
  8
3
 62
3
 10
-353.553391
 20
590.494410
 11
-310.970170
 21
598.689554
  0
LINE
  8
3
 62
3
 10
-353.553391
 20
590.494410
 11
-310.970170
 21
631.470133
  0
LINE
  8
3
 62
3
 10
-353.553391
 20
590.494410
 11
-268.386949
 21
639.665278
  0
LINE
  8
3
 62
3
 10
-353.553391
 20
549.502199
 11
-310.970170
 21
557.697344
  0
LINE
  8
3
 62
3
 10
-353.553391
 20
549.502199
 11
-310.970170
 21
590.477922
  0
LINE
  8
3
 62
3
 10
-353.553391
 20
549.502199
 11
-268.386949
 21
598.673067
  0
LINE
  8
3
 62
3
 10
-268.386949
 20
639.665278
 11
-268.386949
 21
598.673067
  0
LINE
  8
3
 62
3
 10
-353.553391
 20
549.502199
 11
-310.970170
 21
557.697344
  0
LINE
  8
3
 62
3
 10
-353.553391
 20
549.502199
 11
-310.970170
 21
590.477922
  0
LINE
  8
3
 62
3
 10
-353.553391
 20
549.502199
 11
-268.386949
 21
598.673067
  0
LINE
  8
3
 62
3
 10
-353.553391
 20
432.743188
 11
-310.970170
 21
440.938333
  0
LINE
  8
3
 62
3
 10
-353.553391
 20
432.743188
 11
-310.970170
 21
473.718911
  0
LINE
  8
3
 62
3
 10
-353.553391
 20
432.743188
 11
-268.386949
 21
481.914056
  0
LINE
  8
3
 62
3
 10
-268.386949
 20
598.673067
 11
-268.386949
 21
481.914056
  0
LINE
  8
3
 62
3
 10
-353.553391
 20
432.743188
 11
-310.970170
 21
440.938333
  0
LINE
  8
3
 62
3
 10
-353.553391
 20
432.743188
 11
-310.970170
 21
473.718911
  0
LINE
  8
3
 62
3
 10
-353.553391
 20
432.743188
 11
-268.386949
 21
481.914056
  0
LINE
  8
3
 62
3
 10
-353.553391
 20
408.248290
 11
-310.970170
 21
416.443435
  0
LINE
  8
3
 62
3
 10
-353.553391
 20
408.248290
 11
-310.970170
 21
449.224014
  0
LINE
  8
3
 62
3
 10
-353.553391
 20
408.248290
 11
-268.386949
 21
457.419159
  0
LINE
  8
3
 62
3
 10
-268.386949
 20
481.914056
 11
-268.386949
 21
457.419159
  0
LINE
  8
3
 62
3
 10
1060.660172
 20
2349.800409
 11
1103.243393
 21
2357.995554
  0
LINE
  8
3
 62
3
 10
1060.660172
 20
2349.800409
 11
1103.243393
 21
2390.776133
  0
LINE
  8
3
 62
3
 10
1060.660172
 20
2349.800409
 11
1145.826614
 21
2398.971277
  0
LINE
  8
3
 62
3
 10
1060.660172
 20
2309.052331
 11
1103.243393
 21
2317.247476
  0
LINE
  8
3
 62
3
 10
1060.660172
 20
2309.052331
 11
1103.243393
 21
2350.028054
  0
LINE
  8
3
 62
3
 10
1060.660172
 20
2309.052331
 11
1145.826614
 21
2358.223199
  0
LINE
  8
3
 62
3
 10
1145.826614
 20
2398.971277
 11
1145.826614
 21
2358.223199
  0
LINE
  8
3
 62
3
 10
1060.660172
 20
2309.052331
 11
1103.243393
 21
2317.247476
  0
LINE
  8
3
 62
3
 10
1060.660172
 20
2309.052331
 11
1103.243393
 21
2350.028054
  0
LINE
  8
3
 62
3
 10
1060.660172
 20
2309.052331
 11
1145.826614
 21
2358.223199
  0
LINE
  8
3
 62
3
 10
1060.660172
 20
1265.569700
 11
1103.243393
 21
1273.764845
  0
LINE
  8
3
 62
3
 10
1060.660172
 20
1265.569700
 11
1103.243393
 21
1306.545424
  0
LINE
  8
3
 62
3
 10
1060.660172
 20
1265.569700
 11
1145.826614
 21
1314.740569
  0
LINE
  8
3
 62
3
 10
1145.826614
 20
2358.223199
 11
1145.826614
 21
1314.740569
  0
LINE
  8
3
 62
3
 10
1060.660172
 20
1265.569700
 11
1103.243393
 21
1273.764845
  0
LINE
  8
3
 62
3
 10
1060.660172
 20
1265.569700
 11
1103.243393
 21
1306.545424
  0
LINE
  8
3
 62
3
 10
1060.660172
 20
1265.569700
 11
1145.826614
 21
1314.740569
  0
LINE
  8
3
 62
3
 10
1060.660172
 20
1224.744871
 11
1103.243393
 21
1232.940016
  0
LINE
  8
3
 62
3
 10
1060.660172
 20
1224.744871
 11
1103.243393
 21
1265.720595
  0
LINE
  8
3
 62
3
 10
1060.660172
 20
1224.744871
 11
1145.826614
 21
1273.915740
  0
LINE
  8
3
 62
3
 10
1145.826614
 20
1314.740569
 11
1145.826614
 21
1273.915740
  0
LINE
  8
3
 62
3
 10
353.553391
 20
1470.147001
 11
396.136612
 21
1478.342146
  0
LINE
  8
3
 62
3
 10
353.553391
 20
1470.147001
 11
396.136612
 21
1511.122725
  0
LINE
  8
3
 62
3
 10
353.553391
 20
1470.147001
 11
438.719833
 21
1519.317869
  0
LINE
  8
3
 62
3
 10
1060.660172
 20
1265.569700
 11
1103.243393
 21
1273.764845
  0
LINE
  8
3
 62
3
 10
1060.660172
 20
1265.569700
 11
1103.243393
 21
1306.545424
  0
LINE
  8
3
 62
3
 10
1060.660172
 20
1265.569700
 11
1145.826614
 21
1314.740569
  0
LINE
  8
3
 62
3
 10
438.719833
 20
1519.317869
 11
1145.826614
 21
1314.740569
  0
LINE
  8
3
 62
3
 10
-723.370237
 20
804.008266
 11
-680.787016
 21
812.203410
  0
LINE
  8
3
 62
3
 10
-723.370237
 20
804.008266
 11
-680.787016
 21
844.983989
  0
LINE
  8
3
 62
3
 10
-723.370237
 20
804.008266
 11
-638.203795
 21
853.179134
  0
LINE
  8
3
 62
3
 10
-723.370237
 20
763.016055
 11
-680.787016
 21
771.211200
  0
LINE
  8
3
 62
3
 10
-723.370237
 20
763.016055
 11
-680.787016
 21
803.991778
  0
LINE
  8
3
 62
3
 10
-723.370237
 20
763.016055
 11
-638.203795
 21
812.186923
  0
LINE
  8
3
 62
3
 10
-638.203795
 20
853.179134
 11
-638.203795
 21
812.186923
  0
LINE
  8
3
 62
3
 10
-723.370237
 20
763.016055
 11
-680.787016
 21
771.211200
  0
LINE
  8
3
 62
3
 10
-723.370237
 20
763.016055
 11
-680.787016
 21
803.991778
  0
LINE
  8
3
 62
3
 10
-723.370237
 20
763.016055
 11
-638.203795
 21
812.186923
  0
LINE
  8
3
 62
3
 10
-723.370237
 20
646.257044
 11
-680.787016
 21
654.452188
  0
LINE
  8
3
 62
3
 10
-723.370237
 20
646.257044
 11
-680.787016
 21
687.232767
  0
LINE
  8
3
 62
3
 10
-723.370237
 20
646.257044
 11
-638.203795
 21
695.427912
  0
LINE
  8
3
 62
3
 10
-638.203795
 20
812.186923
 11
-638.203795
 21
695.427912
  0
LINE
  8
3
 62
3
 10
-723.370237
 20
646.257044
 11
-680.787016
 21
654.452188
  0
LINE
  8
3
 62
3
 10
-723.370237
 20
646.257044
 11
-680.787016
 21
687.232767
  0
LINE
  8
3
 62
3
 10
-723.370237
 20
646.257044
 11
-638.203795
 21
695.427912
  0
LINE
  8
3
 62
3
 10
-723.370237
 20
621.762146
 11
-680.787016
 21
629.957291
  0
LINE
  8
3
 62
3
 10
-723.370237
 20
621.762146
 11
-680.787016
 21
662.737870
  0
LINE
  8
3
 62
3
 10
-723.370237
 20
621.762146
 11
-638.203795
 21
670.933015
  0
LINE
  8
3
 62
3
 10
-638.203795
 20
695.427912
 11
-638.203795
 21
670.933015
  0
LINE
  8
3
 62
3
 10
690.843325
 20
2563.314265
 11
733.426546
 21
2571.509410
  0
LINE
  8
3
 62
3
 10
690.843325
 20
2563.314265
 11
733.426546
 21
2604.289989
  0
LINE
  8
3
 62
3
 10
690.843325
 20
2563.314265
 11
776.009767
 21
2612.485133
  0
LINE
  8
3
 62
3
 10
690.843325
 20
2522.566187
 11
733.426546
 21
2530.761331
  0
LINE
  8
3
 62
3
 10
690.843325
 20
2522.566187
 11
733.426546
 21
2563.541910
  0
LINE
  8
3
 62
3
 10
690.843325
 20
2522.566187
 11
776.009767
 21
2571.737055
  0
LINE
  8
3
 62
3
 10
776.009767
 20
2612.485133
 11
776.009767
 21
2571.737055
  0
LINE
  8
3
 62
3
 10
690.843325
 20
2522.566187
 11
733.426546
 21
2530.761331
  0
LINE
  8
3
 62
3
 10
690.843325
 20
2522.566187
 11
733.426546
 21
2563.541910
  0
LINE
  8
3
 62
3
 10
690.843325
 20
2522.566187
 11
776.009767
 21
2571.737055
  0
LINE
  8
3
 62
3
 10
690.843325
 20
1479.083556
 11
733.426546
 21
1487.278701
  0
LINE
  8
3
 62
3
 10
690.843325
 20
1479.083556
 11
733.426546
 21
1520.059280
  0
LINE
  8
3
 62
3
 10
690.843325
 20
1479.083556
 11
776.009767
 21
1528.254424
  0
LINE
  8
3
 62
3
 10
776.009767
 20
2571.737055
 11
776.009767
 21
1528.254424
  0
LINE
  8
3
 62
3
 10
690.843325
 20
1479.083556
 11
733.426546
 21
1487.278701
  0
LINE
  8
3
 62
3
 10
690.843325
 20
1479.083556
 11
733.426546
 21
1520.059280
  0
LINE
  8
3
 62
3
 10
690.843325
 20
1479.083556
 11
776.009767
 21
1528.254424
  0
LINE
  8
3
 62
3
 10
690.843325
 20
1438.258727
 11
733.426546
 21
1446.453872
  0
LINE
  8
3
 62
3
 10
690.843325
 20
1438.258727
 11
733.426546
 21
1479.234451
  0
LINE
  8
3
 62
3
 10
690.843325
 20
1438.258727
 11
776.009767
 21
1487.429595
  0
LINE
  8
3
 62
3
 10
776.009767
 20
1528.254424
 11
776.009767
 21
1487.429595
  0
LINE
  8
3
 62
3
 10
-16.263456
 20
1683.660857
 11
26.319765
 21
1691.856002
  0
LINE
  8
3
 62
3
 10
-16.263456
 20
1683.660857
 11
26.319765
 21
1724.636581
  0
LINE
  8
3
 62
3
 10
-16.263456
 20
1683.660857
 11
68.902986
 21
1732.831725
  0
LINE
  8
3
 62
3
 10
690.843325
 20
1479.083556
 11
733.426546
 21
1487.278701
  0
LINE
  8
3
 62
3
 10
690.843325
 20
1479.083556
 11
733.426546
 21
1520.059280
  0
LINE
  8
3
 62
3
 10
690.843325
 20
1479.083556
 11
776.009767
 21
1528.254424
  0
LINE
  8
3
 62
3
 10
68.902986
 20
1732.831725
 11
776.009767
 21
1528.254424
  0
LINE
  8
3
 62
3
 10
-1289.055662
 20
1130.606898
 11
-1246.472441
 21
1138.802043
  0
LINE
  8
3
 62
3
 10
-1289.055662
 20
1130.606898
 11
-1246.472441
 21
1171.582622
  0
LINE
  8
3
 62
3
 10
-1289.055662
 20
1130.606898
 11
-1203.889220
 21
1179.777766
  0
LINE
  8
3
 62
3
 10
-1289.055662
 20
1089.614687
 11
-1246.472441
 21
1097.809832
  0
LINE
  8
3
 62
3
 10
-1289.055662
 20
1089.614687
 11
-1246.472441
 21
1130.590411
  0
LINE
  8
3
 62
3
 10
-1289.055662
 20
1089.614687
 11
-1203.889220
 21
1138.785555
  0
LINE
  8
3
 62
3
 10
-1203.889220
 20
1179.777766
 11
-1203.889220
 21
1138.785555
  0
LINE
  8
3
 62
3
 10
-1289.055662
 20
1089.614687
 11
-1246.472441
 21
1097.809832
  0
LINE
  8
3
 62
3
 10
-1289.055662
 20
1089.614687
 11
-1246.472441
 21
1130.590411
  0
LINE
  8
3
 62
3
 10
-1289.055662
 20
1089.614687
 11
-1203.889220
 21
1138.785555
  0
LINE
  8
3
 62
3
 10
-1289.055662
 20
972.855676
 11
-1246.472441
 21
981.050821
  0
LINE
  8
3
 62
3
 10
-1289.055662
 20
972.855676
 11
-1246.472441
 21
1013.831400
  0
LINE
  8
3
 62
3
 10
-1289.055662
 20
972.855676
 11
-1203.889220
 21
1022.026544
  0
LINE
  8
3
 62
3
 10
-1203.889220
 20
1138.785555
 11
-1203.889220
 21
1022.026544
  0
LINE
  8
3
 62
3
 10
-1289.055662
 20
972.855676
 11
-1246.472441
 21
981.050821
  0
LINE
  8
3
 62
3
 10
-1289.055662
 20
972.855676
 11
-1246.472441
 21
1013.831400
  0
LINE
  8
3
 62
3
 10
-1289.055662
 20
972.855676
 11
-1203.889220
 21
1022.026544
  0
LINE
  8
3
 62
3
 10
-1289.055662
 20
948.360779
 11
-1246.472441
 21
956.555923
  0
LINE
  8
3
 62
3
 10
-1289.055662
 20
948.360779
 11
-1246.472441
 21
989.336502
  0
LINE
  8
3
 62
3
 10
-1289.055662
 20
948.360779
 11
-1203.889220
 21
997.531647
  0
LINE
  8
3
 62
3
 10
-1203.889220
 20
1022.026544
 11
-1203.889220
 21
997.531647
  0
LINE
  8
3
 62
3
 10
125.157900
 20
2889.912897
 11
167.741121
 21
2898.108042
  0
LINE
  8
3
 62
3
 10
125.157900
 20
2889.912897
 11
167.741121
 21
2930.888621
  0
LINE
  8
3
 62
3
 10
125.157900
 20
2889.912897
 11
210.324342
 21
2939.083766
  0
LINE
  8
3
 62
3
 10
125.157900
 20
2849.164819
 11
167.741121
 21
2857.359964
  0
LINE
  8
3
 62
3
 10
125.157900
 20
2849.164819
 11
167.741121
 21
2890.140543
  0
LINE
  8
3
 62
3
 10
125.157900
 20
2849.164819
 11
210.324342
 21
2898.335687
  0
LINE
  8
3
 62
3
 10
210.324342
 20
2939.083766
 11
210.324342
 21
2898.335687
  0
LINE
  8
3
 62
3
 10
125.157900
 20
2849.164819
 11
167.741121
 21
2857.359964
  0
LINE
  8
3
 62
3
 10
125.157900
 20
2849.164819
 11
167.741121
 21
2890.140543
  0
LINE
  8
3
 62
3
 10
125.157900
 20
2849.164819
 11
210.324342
 21
2898.335687
  0
LINE
  8
3
 62
3
 10
125.157900
 20
1805.682189
 11
167.741121
 21
1813.877333
  0
LINE
  8
3
 62
3
 10
125.157900
 20
1805.682189
 11
167.741121
 21
1846.657912
  0
LINE
  8
3
 62
3
 10
125.157900
 20
1805.682189
 11
210.324342
 21
1854.853057
  0
LINE
  8
3
 62
3
 10
210.324342
 20
2898.335687
 11
210.324342
 21
1854.853057
  0
LINE
  8
3
 62
3
 10
125.157900
 20
1805.682189
 11
167.741121
 21
1813.877333
  0
LINE
  8
3
 62
3
 10
125.157900
 20
1805.682189
 11
167.741121
 21
1846.657912
  0
LINE
  8
3
 62
3
 10
125.157900
 20
1805.682189
 11
210.324342
 21
1854.853057
  0
LINE
  8
3
 62
3
 10
125.157900
 20
1764.857360
 11
167.741121
 21
1773.052504
  0
LINE
  8
3
 62
3
 10
125.157900
 20
1764.857360
 11
167.741121
 21
1805.833083
  0
LINE
  8
3
 62
3
 10
125.157900
 20
1764.857360
 11
210.324342
 21
1814.028228
  0
LINE
  8
3
 62
3
 10
210.324342
 20
1854.853057
 11
210.324342
 21
1814.028228
  0
LINE
  8
3
 62
3
 10
-581.948881
 20
2010.259489
 11
-539.365660
 21
2018.454634
  0
LINE
  8
3
 62
3
 10
-581.948881
 20
2010.259489
 11
-539.365660
 21
2051.235213
  0
LINE
  8
3
 62
3
 10
-581.948881
 20
2010.259489
 11
-496.782439
 21
2059.430358
  0
LINE
  8
3
 62
3
 10
125.157900
 20
1805.682189
 11
167.741121
 21
1813.877333
  0
LINE
  8
3
 62
3
 10
125.157900
 20
1805.682189
 11
167.741121
 21
1846.657912
  0
LINE
  8
3
 62
3
 10
125.157900
 20
1805.682189
 11
210.324342
 21
1854.853057
  0
LINE
  8
3
 62
3
 10
-496.782439
 20
2059.430358
 11
210.324342
 21
1854.853057
  0
LINE
  8
3
 62
3
 10
397.040458
 20
116.146639
 11
439.623679
 21
124.341783
  0
LINE
  8
3
 62
3
 10
397.040458
 20
116.146639
 11
439.623679
 21
157.122362
  0
LINE
  8
3
 62
3
 10
397.040458
 20
116.146639
 11
482.206900
 21
165.317507
  0
LINE
  8
3
 62
3
 10
212.132034
 20
222.903567
 11
254.715255
 21
231.098711
  0
LINE
  8
3
 62
3
 10
212.132034
 20
222.903567
 11
254.715255
 21
263.879290
  0
LINE
  8
3
 62
3
 10
212.132034
 20
222.903567
 11
297.298476
 21
272.074435
  0
LINE
  8
3
 62
3
 10
482.206900
 20
165.317507
 11
297.298476
 21
272.074435
  0
LINE
  8
3
 62
3
 10
212.132034
 20
222.903567
 11
254.715255
 21
231.098711
  0
LINE
  8
3
 62
3
 10
212.132034
 20
222.903567
 11
254.715255
 21
263.879290
  0
LINE
  8
3
 62
3
 10
212.132034
 20
222.903567
 11
297.298476
 21
272.074435
  0
LINE
  8
3
 62
3
 10
-353.553391
 20
549.502199
 11
-310.970170
 21
557.697344
  0
LINE
  8
3
 62
3
 10
-353.553391
 20
549.502199
 11
-310.970170
 21
590.477922
  0
LINE
  8
3
 62
3
 10
-353.553391
 20
549.502199
 11
-268.386949
 21
598.673067
  0
LINE
  8
3
 62
3
 10
297.298476
 20
272.074435
 11
-268.386949
 21
598.673067
  0
LINE
  8
3
 62
3
 10
-353.553391
 20
549.502199
 11
-310.970170
 21
557.697344
  0
LINE
  8
3
 62
3
 10
-353.553391
 20
549.502199
 11
-310.970170
 21
590.477922
  0
LINE
  8
3
 62
3
 10
-353.553391
 20
549.502199
 11
-268.386949
 21
598.673067
  0
LINE
  8
3
 62
3
 10
-723.370237
 20
763.016055
 11
-680.787016
 21
771.211200
  0
LINE
  8
3
 62
3
 10
-723.370237
 20
763.016055
 11
-680.787016
 21
803.991778
  0
LINE
  8
3
 62
3
 10
-723.370237
 20
763.016055
 11
-638.203795
 21
812.186923
  0
LINE
  8
3
 62
3
 10
-268.386949
 20
598.673067
 11
-638.203795
 21
812.186923
  0
LINE
  8
3
 62
3
 10
-723.370237
 20
763.016055
 11
-680.787016
 21
771.211200
  0
LINE
  8
3
 62
3
 10
-723.370237
 20
763.016055
 11
-680.787016
 21
803.991778
  0
LINE
  8
3
 62
3
 10
-723.370237
 20
763.016055
 11
-638.203795
 21
812.186923
  0
LINE
  8
3
 62
3
 10
-1289.055662
 20
1089.614687
 11
-1246.472441
 21
1097.809832
  0
LINE
  8
3
 62
3
 10
-1289.055662
 20
1089.614687
 11
-1246.472441
 21
1130.590411
  0
LINE
  8
3
 62
3
 10
-1289.055662
 20
1089.614687
 11
-1203.889220
 21
1138.785555
  0
LINE
  8
3
 62
3
 10
-638.203795
 20
812.186923
 11
-1203.889220
 21
1138.785555
  0
LINE
  8
3
 62
3
 10
-1289.055662
 20
1089.614687
 11
-1246.472441
 21
1097.809832
  0
LINE
  8
3
 62
3
 10
-1289.055662
 20
1089.614687
 11
-1246.472441
 21
1130.590411
  0
LINE
  8
3
 62
3
 10
-1289.055662
 20
1089.614687
 11
-1203.889220
 21
1138.785555
  0
LINE
  8
3
 62
3
 10
-1473.964085
 20
1196.371615
 11
-1431.380864
 21
1204.566760
  0
LINE
  8
3
 62
3
 10
-1473.964085
 20
1196.371615
 11
-1431.380864
 21
1237.347339
  0
LINE
  8
3
 62
3
 10
-1473.964085
 20
1196.371615
 11
-1388.797643
 21
1245.542483
  0
LINE
  8
3
 62
3
 10
-1203.889220
 20
1138.785555
 11
-1388.797643
 21
1245.542483
  0
LINE
  8
3
 62
3
 10
1811.254020
 20
1875.696771
 11
1853.837241
 21
1883.891915
  0
LINE
  8
3
 62
3
 10
1811.254020
 20
1875.696771
 11
1853.837241
 21
1916.672494
  0
LINE
  8
3
 62
3
 10
1811.254020
 20
1875.696771
 11
1896.420462
 21
1924.867639
  0
LINE
  8
3
 62
3
 10
1626.345597
 20
1982.453698
 11
1668.928818
 21
1990.648843
  0
LINE
  8
3
 62
3
 10
1626.345597
 20
1982.453698
 11
1668.928818
 21
2023.429422
  0
LINE
  8
3
 62
3
 10
1626.345597
 20
1982.453698
 11
1711.512039
 21
2031.624567
  0
LINE
  8
3
 62
3
 10
1896.420462
 20
1924.867639
 11
1711.512039
 21
2031.624567
  0
LINE
  8
3
 62
3
 10
1626.345597
 20
1982.453698
 11
1668.928818
 21
1990.648843
  0
LINE
  8
3
 62
3
 10
1626.345597
 20
1982.453698
 11
1668.928818
 21
2023.429422
  0
LINE
  8
3
 62
3
 10
1626.345597
 20
1982.453698
 11
1711.512039
 21
2031.624567
  0
LINE
  8
3
 62
3
 10
1060.660172
 20
2309.052331
 11
1103.243393
 21
2317.247476
  0
LINE
  8
3
 62
3
 10
1060.660172
 20
2309.052331
 11
1103.243393
 21
2350.028054
  0
LINE
  8
3
 62
3
 10
1060.660172
 20
2309.052331
 11
1145.826614
 21
2358.223199
  0
LINE
  8
3
 62
3
 10
1711.512039
 20
2031.624567
 11
1145.826614
 21
2358.223199
  0
LINE
  8
3
 62
3
 10
1060.660172
 20
2309.052331
 11
1103.243393
 21
2317.247476
  0
LINE
  8
3
 62
3
 10
1060.660172
 20
2309.052331
 11
1103.243393
 21
2350.028054
  0
LINE
  8
3
 62
3
 10
1060.660172
 20
2309.052331
 11
1145.826614
 21
2358.223199
  0
LINE
  8
3
 62
3
 10
690.843325
 20
2522.566187
 11
733.426546
 21
2530.761331
  0
LINE
  8
3
 62
3
 10
690.843325
 20
2522.566187
 11
733.426546
 21
2563.541910
  0
LINE
  8
3
 62
3
 10
690.843325
 20
2522.566187
 11
776.009767
 21
2571.737055
  0
LINE
  8
3
 62
3
 10
1145.826614
 20
2358.223199
 11
776.009767
 21
2571.737055
  0
LINE
  8
3
 62
3
 10
690.843325
 20
2522.566187
 11
733.426546
 21
2530.761331
  0
LINE
  8
3
 62
3
 10
690.843325
 20
2522.566187
 11
733.426546
 21
2563.541910
  0
LINE
  8
3
 62
3
 10
690.843325
 20
2522.566187
 11
776.009767
 21
2571.737055
  0
LINE
  8
3
 62
3
 10
125.157900
 20
2849.164819
 11
167.741121
 21
2857.359964
  0
LINE
  8
3
 62
3
 10
125.157900
 20
2849.164819
 11
167.741121
 21
2890.140543
  0
LINE
  8
3
 62
3
 10
125.157900
 20
2849.164819
 11
210.324342
 21
2898.335687
  0
LINE
  8
3
 62
3
 10
776.009767
 20
2571.737055
 11
210.324342
 21
2898.335687
  0
LINE
  8
3
 62
3
 10
125.157900
 20
2849.164819
 11
167.741121
 21
2857.359964
  0
LINE
  8
3
 62
3
 10
125.157900
 20
2849.164819
 11
167.741121
 21
2890.140543
  0
LINE
  8
3
 62
3
 10
125.157900
 20
2849.164819
 11
210.324342
 21
2898.335687
  0
LINE
  8
3
 62
3
 10
-59.750523
 20
2955.921747
 11
-17.167302
 21
2964.116892
  0
LINE
  8
3
 62
3
 10
-59.750523
 20
2955.921747
 11
-17.167302
 21
2996.897471
  0
LINE
  8
3
 62
3
 10
-59.750523
 20
2955.921747
 11
25.415919
 21
3005.092615
  0
LINE
  8
3
 62
3
 10
210.324342
 20
2898.335687
 11
25.415919
 21
3005.092615
  0
LINE
  8
3
 62
3
 10
397.040458
 20
-65.932099
 11
482.206900
 21
-49.541810
  0
LINE
  8
3
 62
3
 10
397.040458
 20
-65.932099
 11
482.206900
 21
16.019348
  0
LINE
  8
3
 62
3
 10
397.040458
 20
-65.932099
 11
567.373342
 21
32.409638
  0
LINE
  8
3
 62
3
 10
345.421663
 20
-36.129974
 11
430.588105
 21
-19.739684
  0
LINE
  8
3
 62
3
 10
345.421663
 20
-36.129974
 11
430.588105
 21
45.821473
  0
LINE
  8
3
 62
3
 10
345.421663
 20
-36.129974
 11
515.754547
 21
62.211763
  0
LINE
  8
3
 62
3
 10
567.373342
 20
32.409638
 11
515.754547
 21
62.211763
  0
LINE
  8
3
 62
3
 10
345.421663
 20
-36.129974
 11
430.588105
 21
-19.739684
  0
LINE
  8
3
 62
3
 10
345.421663
 20
-36.129974
 11
430.588105
 21
45.821473
  0
LINE
  8
3
 62
3
 10
345.421663
 20
-36.129974
 11
515.754547
 21
62.211763
  0
LINE
  8
3
 62
3
 10
212.132034
 20
40.824829
 11
297.298476
 21
57.215118
  0
LINE
  8
3
 62
3
 10
212.132034
 20
40.824829
 11
297.298476
 21
122.776276
  0
LINE
  8
3
 62
3
 10
212.132034
 20
40.824829
 11
382.464918
 21
139.166565
  0
LINE
  8
3
 62
3
 10
515.754547
 20
62.211763
 11
382.464918
 21
139.166565
  0
LINE
  8
3
 62
3
 10
212.132034
 20
40.824829
 11
297.298476
 21
57.215118
  0
LINE
  8
3
 62
3
 10
212.132034
 20
40.824829
 11
297.298476
 21
122.776276
  0
LINE
  8
3
 62
3
 10
212.132034
 20
40.824829
 11
382.464918
 21
139.166565
  0
LINE
  8
3
 62
3
 10
-353.553391
 20
367.423461
 11
-268.386949
 21
383.813751
  0
LINE
  8
3
 62
3
 10
-353.553391
 20
367.423461
 11
-268.386949
 21
449.374908
  0
LINE
  8
3
 62
3
 10
-353.553391
 20
367.423461
 11
-183.220507
 21
465.765198
  0
LINE
  8
3
 62
3
 10
382.464918
 20
139.166565
 11
-183.220507
 21
465.765198
  0
LINE
  8
3
 62
3
 10
-353.553391
 20
367.423461
 11
-268.386949
 21
383.813751
  0
LINE
  8
3
 62
3
 10
-353.553391
 20
367.423461
 11
-268.386949
 21
449.374908
  0
LINE
  8
3
 62
3
 10
-353.553391
 20
367.423461
 11
-183.220507
 21
465.765198
  0
LINE
  8
3
 62
3
 10
-723.370237
 20
580.937317
 11
-638.203795
 21
597.327607
  0
LINE
  8
3
 62
3
 10
-723.370237
 20
580.937317
 11
-638.203795
 21
662.888764
  0
LINE
  8
3
 62
3
 10
-723.370237
 20
580.937317
 11
-553.037353
 21
679.279054
  0
LINE
  8
3
 62
3
 10
-183.220507
 20
465.765198
 11
-553.037353
 21
679.279054
  0
LINE
  8
3
 62
3
 10
-723.370237
 20
580.937317
 11
-638.203795
 21
597.327607
  0
LINE
  8
3
 62
3
 10
-723.370237
 20
580.937317
 11
-638.203795
 21
662.888764
  0
LINE
  8
3
 62
3
 10
-723.370237
 20
580.937317
 11
-553.037353
 21
679.279054
  0
LINE
  8
3
 62
3
 10
-1289.055662
 20
907.535950
 11
-1203.889220
 21
923.926239
  0
LINE
  8
3
 62
3
 10
-1289.055662
 20
907.535950
 11
-1203.889220
 21
989.487397
  0
LINE
  8
3
 62
3
 10
-1289.055662
 20
907.535950
 11
-1118.722778
 21
1005.877686
  0
LINE
  8
3
 62
3
 10
-553.037353
 20
679.279054
 11
-1118.722778
 21
1005.877686
  0
LINE
  8
3
 62
3
 10
-1289.055662
 20
907.535950
 11
-1203.889220
 21
923.926239
  0
LINE
  8
3
 62
3
 10
-1289.055662
 20
907.535950
 11
-1203.889220
 21
989.487397
  0
LINE
  8
3
 62
3
 10
-1289.055662
 20
907.535950
 11
-1118.722778
 21
1005.877686
  0
LINE
  8
3
 62
3
 10
-1422.345290
 20
984.490752
 11
-1337.178848
 21
1000.881042
  0
LINE
  8
3
 62
3
 10
-1422.345290
 20
984.490752
 11
-1337.178848
 21
1066.442199
  0
LINE
  8
3
 62
3
 10
-1422.345290
 20
984.490752
 11
-1252.012406
 21
1082.832489
  0
LINE
  8
3
 62
3
 10
-1118.722778
 20
1005.877686
 11
-1252.012406
 21
1082.832489
  0
LINE
  8
3
 62
3
 10
-1422.345290
 20
984.490752
 11
-1337.178848
 21
1000.881042
  0
LINE
  8
3
 62
3
 10
-1422.345290
 20
984.490752
 11
-1337.178848
 21
1066.442199
  0
LINE
  8
3
 62
3
 10
-1422.345290
 20
984.490752
 11
-1252.012406
 21
1082.832489
  0
LINE
  8
3
 62
3
 10
-1473.964085
 20
1014.292878
 11
-1388.797643
 21
1030.683167
  0
LINE
  8
3
 62
3
 10
-1473.964085
 20
1014.292878
 11
-1388.797643
 21
1096.244325
  0
LINE
  8
3
 62
3
 10
-1473.964085
 20
1014.292878
 11
-1303.631201
 21
1112.634614
  0
LINE
  8
3
 62
3
 10
-1252.012406
 20
1082.832489
 11
-1303.631201
 21
1112.634614
  0
LINE
  8
3
 62
3
 10
1811.254020
 20
750.564482
 11
1896.420462
 21
766.954771
  0
LINE
  8
3
 62
3
 10
1811.254020
 20
750.564482
 11
1896.420462
 21
832.515929
  0
LINE
  8
3
 62
3
 10
1811.254020
 20
750.564482
 11
1981.586904
 21
848.906218
  0
LINE
  8
3
 62
3
 10
1759.635225
 20
780.366607
 11
1844.801667
 21
796.756897
  0
LINE
  8
3
 62
3
 10
1759.635225
 20
780.366607
 11
1844.801667
 21
862.318054
  0
LINE
  8
3
 62
3
 10
1759.635225
 20
780.366607
 11
1929.968109
 21
878.708344
  0
LINE
  8
3
 62
3
 10
1981.586904
 20
848.906218
 11
1929.968109
 21
878.708344
  0
LINE
  8
3
 62
3
 10
1759.635225
 20
780.366607
 11
1844.801667
 21
796.756897
  0
LINE
  8
3
 62
3
 10
1759.635225
 20
780.366607
 11
1844.801667
 21
862.318054
  0
LINE
  8
3
 62
3
 10
1759.635225
 20
780.366607
 11
1929.968109
 21
878.708344
  0
LINE
  8
3
 62
3
 10
1626.345597
 20
857.321410
 11
1711.512039
 21
873.711699
  0
LINE
  8
3
 62
3
 10
1626.345597
 20
857.321410
 11
1711.512039
 21
939.272857
  0
LINE
  8
3
 62
3
 10
1626.345597
 20
857.321410
 11
1796.678481
 21
955.663146
  0
LINE
  8
3
 62
3
 10
1929.968109
 20
878.708344
 11
1796.678481
 21
955.663146
  0
LINE
  8
3
 62
3
 10
1626.345597
 20
857.321410
 11
1711.512039
 21
873.711699
  0
LINE
  8
3
 62
3
 10
1626.345597
 20
857.321410
 11
1711.512039
 21
939.272857
  0
LINE
  8
3
 62
3
 10
1626.345597
 20
857.321410
 11
1796.678481
 21
955.663146
  0
LINE
  8
3
 62
3
 10
1060.660172
 20
1183.920042
 11
1145.826614
 21
1200.310332
  0
LINE
  8
3
 62
3
 10
1060.660172
 20
1183.920042
 11
1145.826614
 21
1265.871489
  0
LINE
  8
3
 62
3
 10
1060.660172
 20
1183.920042
 11
1230.993056
 21
1282.261779
  0
LINE
  8
3
 62
3
 10
1796.678481
 20
955.663146
 11
1230.993056
 21
1282.261779
  0
LINE
  8
3
 62
3
 10
1060.660172
 20
1183.920042
 11
1145.826614
 21
1200.310332
  0
LINE
  8
3
 62
3
 10
1060.660172
 20
1183.920042
 11
1145.826614
 21
1265.871489
  0
LINE
  8
3
 62
3
 10
1060.660172
 20
1183.920042
 11
1230.993056
 21
1282.261779
  0
LINE
  8
3
 62
3
 10
690.843325
 20
1397.433898
 11
776.009767
 21
1413.824188
  0
LINE
  8
3
 62
3
 10
690.843325
 20
1397.433898
 11
776.009767
 21
1479.385345
  0
LINE
  8
3
 62
3
 10
690.843325
 20
1397.433898
 11
861.176209
 21
1495.775635
  0
LINE
  8
3
 62
3
 10
1230.993056
 20
1282.261779
 11
861.176209
 21
1495.775635
  0
LINE
  8
3
 62
3
 10
690.843325
 20
1397.433898
 11
776.009767
 21
1413.824188
  0
LINE
  8
3
 62
3
 10
690.843325
 20
1397.433898
 11
776.009767
 21
1479.385345
  0
LINE
  8
3
 62
3
 10
690.843325
 20
1397.433898
 11
861.176209
 21
1495.775635
  0
LINE
  8
3
 62
3
 10
125.157900
 20
1724.032531
 11
210.324342
 21
1740.422820
  0
LINE
  8
3
 62
3
 10
125.157900
 20
1724.032531
 11
210.324342
 21
1805.983978
  0
LINE
  8
3
 62
3
 10
125.157900
 20
1724.032531
 11
295.490784
 21
1822.374267
  0
LINE
  8
3
 62
3
 10
861.176209
 20
1495.775635
 11
295.490784
 21
1822.374267
  0
LINE
  8
3
 62
3
 10
125.157900
 20
1724.032531
 11
210.324342
 21
1740.422820
  0
LINE
  8
3
 62
3
 10
125.157900
 20
1724.032531
 11
210.324342
 21
1805.983978
  0
LINE
  8
3
 62
3
 10
125.157900
 20
1724.032531
 11
295.490784
 21
1822.374267
  0
LINE
  8
3
 62
3
 10
-8.131728
 20
1800.987333
 11
77.034714
 21
1817.377623
  0
LINE
  8
3
 62
3
 10
-8.131728
 20
1800.987333
 11
77.034714
 21
1882.938780
  0
LINE
  8
3
 62
3
 10
-8.131728
 20
1800.987333
 11
162.201156
 21
1899.329070
  0
LINE
  8
3
 62
3
 10
295.490784
 20
1822.374267
 11
162.201156
 21
1899.329070
  0
LINE
  8
3
 62
3
 10
-8.131728
 20
1800.987333
 11
77.034714
 21
1817.377623
  0
LINE
  8
3
 62
3
 10
-8.131728
 20
1800.987333
 11
77.034714
 21
1882.938780
  0
LINE
  8
3
 62
3
 10
-8.131728
 20
1800.987333
 11
162.201156
 21
1899.329070
  0
LINE
  8
3
 62
3
 10
-59.750523
 20
1830.789458
 11
25.415919
 21
1847.179748
  0
LINE
  8
3
 62
3
 10
-59.750523
 20
1830.789458
 11
25.415919
 21
1912.740905
  0
LINE
  8
3
 62
3
 10
-59.750523
 20
1830.789458
 11
110.582361
 21
1929.131195
  0
LINE
  8
3
 62
3
 10
162.201156
 20
1899.329070
 11
110.582361
 21
1929.131195
  0
LINE
  8
4
 62
1
 10
-33.363221
 20
-35.245909
 11
-28.873956
 21
-29.222682
  0
LINE
  8
4
 62
1
 10
-28.873956
 20
-29.222682
 11
-24.384690
 21
-23.199455
  0
LINE
  8
4
 62
1
 10
-24.384690
 20
-23.199455
 11
-19.895425
 21
-17.176227
  0
LINE
  8
4
 62
1
 10
-19.895425
 20
-17.176227
 11
-15.406159
 21
-11.153000
  0
LINE
  8
4
 62
1
 10
-15.406159
 20
-11.153000
 11
31.081542
 21
51.249015
  0
LINE
  8
4
 62
1
 10
31.081542
 20
51.249015
 11
77.505414
 21
113.741895
  0
LINE
  8
4
 62
1
 10
77.505414
 20
113.741895
 11
123.802075
 21
176.415811
  0
LINE
  8
4
 62
1
 10
123.802075
 20
176.415811
 11
169.908760
 21
239.360055
  0
LINE
  8
4
 62
1
 10
169.908760
 20
239.360055
 11
262.381835
 21
363.359324
  0
LINE
  8
4
 62
1
 10
262.381835
 20
363.359324
 11
357.077075
 21
484.960751
  0
LINE
  8
4
 62
1
 10
357.077075
 20
484.960751
 11
453.751078
 21
604.323244
  0
LINE
  8
4
 62
1
 10
453.751078
 20
604.323244
 11
552.170021
 21
721.592078
  0
LINE
  8
4
 62
1
 10
552.170021
 20
721.592078
 11
561.828241
 21
732.892786
  0
LINE
  8
4
 62
1
 10
561.828241
 20
732.892786
 11
571.500170
 21
744.175725
  0
LINE
  8
4
 62
1
 10
571.500170
 20
744.175725
 11
581.185142
 21
755.441671
  0
LINE
  8
4
 62
1
 10
581.185142
 20
755.441671
 11
590.882491
 21
766.691395
  0
LINE
  8
4
 62
1
 10
590.882491
 20
766.691395
 11
665.366626
 21
852.339784
  0
LINE
  8
4
 62
1
 10
665.366626
 20
852.339784
 11
740.033305
 21
937.722432
  0
LINE
  8
4
 62
1
 10
740.033305
 20
937.722432
 11
814.382078
 21
1023.474113
  0
LINE
  8
4
 62
1
 10
814.382078
 20
1023.474113
 11
887.915432
 21
1110.225422
  0
LINE
  8
4
 62
1
 10
887.915432
 20
1110.225422
 11
961.818244
 21
1200.207071
  0
LINE
  8
4
 62
1
 10
961.818244
 20
1200.207071
 11
1034.753355
 21
1291.299210
  0
LINE
  8
4
 62
1
 10
1034.753355
 20
1291.299210
 11
1107.009089
 21
1383.071024
  0
LINE
  8
4
 62
1
 10
1107.009089
 20
1383.071024
 11
1178.876960
 21
1475.087154
  0
LINE
  8
4
 62
1
 10
1178.876960
 20
1475.087154
 11
1187.614603
 21
1486.285735
  0
LINE
  8
4
 62
1
 10
1187.614603
 20
1486.285735
 11
1196.350994
 21
1497.481198
  0
LINE
  8
4
 62
1
 10
1196.350994
 20
1497.481198
 11
1205.086267
 21
1508.673312
  0
LINE
  8
4
 62
1
 10
1205.086267
 20
1508.673312
 11
1213.820561
 21
1519.861843
  0
LINE
  8
4
 62
1
 10
1213.820561
 20
1519.861843
 11
1307.128065
 21
1639.352504
  0
LINE
  8
4
 62
1
 10
1307.128065
 20
1639.352504
 11
1400.025622
 21
1758.807480
  0
LINE
  8
4
 62
1
 10
1400.025622
 20
1758.807480
 11
1492.207242
 21
1878.616528
  0
LINE
  8
4
 62
1
 10
1492.207242
 20
1878.616528
 11
1583.376111
 21
1999.156357
  0
LINE
  8
4
 62
1
 10
1583.376111
 20
1999.156357
 11
1630.810534
 21
2062.893940
  0
LINE
  8
4
 62
1
 10
1630.810534
 20
2062.893940
 11
1678.036883
 21
2126.927604
  0
LINE
  8
4
 62
1
 10
1678.036883
 20
2126.927604
 11
1725.123881
 21
2191.159578
  0
LINE
  8
4
 62
1
 10
1725.123881
 20
2191.159578
 11
1772.140950
 21
2255.491101
  0
LINE
  8
4
 62
1
 10
1772.140950
 20
2255.491101
 11
1776.542958
 21
2261.517215
  0
LINE
  8
4
 62
1
 10
1776.542958
 20
2261.517215
 11
1780.944967
 21
2267.543329
  0
LINE
  8
4
 62
1
 10
1780.944967
 20
2267.543329
 11
1785.346975
 21
2273.569444
  0
LINE
  8
4
 62
1
 10
1785.346975
 20
2273.569444
 11
1789.748984
 21
2279.595558
  0
LINE
  8
4
 62
1
 10
169.908760
 20
239.360055
 11
170.481753
 21
229.481534
  0
LINE
  8
4
 62
1
 10
170.481753
 20
229.481534
 11
171.087406
 21
219.617603
  0
LINE
  8
4
 62
1
 10
171.087406
 20
219.617603
 11
171.724762
 21
209.767576
  0
LINE
  8
4
 62
1
 10
171.724762
 20
209.767576
 11
172.392861
 21
199.930768
  0
LINE
  8
4
 62
1
 10
172.392861
 20
199.930768
 11
174.452795
 21
171.978149
  0
LINE
  8
4
 62
1
 10
174.452795
 20
171.978149
 11
176.707558
 21
144.111036
  0
LINE
  8
4
 62
1
 10
176.707558
 20
144.111036
 11
179.107010
 21
116.315020
  0
LINE
  8
4
 62
1
 10
179.107010
 20
116.315020
 11
181.600887
 21
88.575621
  0
LINE
  8
4
 62
1
 10
181.600887
 20
88.575621
 11
182.131353
 21
82.761993
  0
LINE
  8
4
 62
1
 10
182.131353
 20
82.761993
 11
182.663293
 21
76.950082
  0
LINE
  8
4
 62
1
 10
182.663293
 20
76.950082
 11
183.196240
 21
71.139754
  0
LINE
  8
4
 62
1
 10
183.196240
 20
71.139754
 11
183.729728
 21
65.330873
  0
LINE
  8
4
 62
1
 10
183.729728
 20
65.330873
 11
184.619616
 21
55.650880
  0
LINE
  8
4
 62
1
 10
184.619616
 20
55.650880
 11
185.510056
 21
45.971486
  0
LINE
  8
4
 62
1
 10
185.510056
 20
45.971486
 11
186.400227
 21
36.292257
  0
LINE
  8
4
 62
1
 10
186.400227
 20
36.292257
 11
187.289306
 21
26.612760
  0
LINE
  8
4
 62
1
 10
1583.376111
 20
1999.156357
 11
1583.349761
 21
1989.063020
  0
LINE
  8
4
 62
1
 10
1583.349761
 20
1989.063020
 11
1583.319265
 21
1978.964052
  0
LINE
  8
4
 62
1
 10
1583.319265
 20
1978.964052
 11
1583.285336
 21
1968.859898
  0
LINE
  8
4
 62
1
 10
1583.285336
 20
1968.859898
 11
1583.248684
 21
1958.750999
  0
LINE
  8
4
 62
1
 10
1583.248684
 20
1958.750999
 11
1582.485649
 21
1698.500921
  0
LINE
  8
4
 62
1
 10
1582.485649
 20
1698.500921
 11
1583.132050
 21
1437.199933
  0
LINE
  8
4
 62
1
 10
1583.132050
 20
1437.199933
 11
1586.110204
 21
1176.901374
  0
LINE
  8
4
 62
1
 10
1586.110204
 20
1176.901374
 11
1591.570709
 21
919.213032
  0
LINE
  8
4
 62
1
 10
1591.570709
 20
919.213032
 11
1591.828058
 21
909.202624
  0
LINE
  8
4
 62
1
 10
1591.828058
 20
909.202624
 11
1592.085783
 21
899.202475
  0
LINE
  8
4
 62
1
 10
1592.085783
 20
899.202475
 11
1592.342228
 21
889.211816
  0
LINE
  8
4
 62
1
 10
1592.342228
 20
889.211816
 11
1592.595735
 21
879.229878
  0
LINE
  8
4
 62
1
 10
1592.595735
 20
879.229878
 11
1592.847900
 21
869.254777
  0
LINE
  8
4
 62
1
 10
1592.847900
 20
869.254777
 11
1593.100936
 21
859.280903
  0
LINE
  8
4
 62
1
 10
1593.100936
 20
859.280903
 11
1593.354106
 21
849.307844
  0
LINE
  8
4
 62
1
 10
1593.354106
 20
849.307844
 11
1593.606672
 21
839.335187
  0
LINE
  8
4
 62
1
 10
887.915432
 20
1110.225422
 11
1064.603532
 21
1055.444717
  0
LINE
  8
4
 62
1
 10
1064.603532
 20
1055.444717
 11
1241.504323
 21
1004.529003
  0
LINE
  8
4
 62
1
 10
1241.504323
 20
1004.529003
 11
1417.604698
 21
958.878111
  0
LINE
  8
4
 62
1
 10
1417.604698
 20
958.878111
 11
1591.570709
 21
919.213032
  0
LINE
  8
4
 62
1
 10
-673.630785
 20
250.602601
 11
-669.125594
 21
256.623325
  0
LINE
  8
4
 62
1
 10
-669.125594
 20
256.623325
 11
-664.620403
 21
262.644049
  0
LINE
  8
4
 62
1
 10
-664.620403
 20
262.644049
 11
-660.115211
 21
268.664774
  0
LINE
  8
4
 62
1
 10
-660.115211
 20
268.664774
 11
-655.610019
 21
274.685498
  0
LINE
  8
4
 62
1
 10
-655.610019
 20
274.685498
 11
-608.957362
 21
337.061589
  0
LINE
  8
4
 62
1
 10
-608.957362
 20
337.061589
 11
-562.368534
 21
399.528544
  0
LINE
  8
4
 62
1
 10
-562.368534
 20
399.528544
 11
-515.906917
 21
462.176534
  0
LINE
  8
4
 62
1
 10
-515.906917
 20
462.176534
 11
-469.635276
 21
525.094853
  0
LINE
  8
4
 62
1
 10
-469.635276
 20
525.094853
 11
-377.816259
 21
650.209782
  0
LINE
  8
4
 62
1
 10
-377.816259
 20
650.209782
 11
-285.392008
 21
774.791772
  0
LINE
  8
4
 62
1
 10
-285.392008
 20
774.791772
 11
-192.058191
 21
898.331346
  0
LINE
  8
4
 62
1
 10
-192.058191
 20
898.331346
 11
-97.500893
 21
1020.305396
  0
LINE
  8
4
 62
1
 10
-97.500893
 20
1020.305396
 11
-88.225706
 21
1032.067045
  0
LINE
  8
4
 62
1
 10
-88.225706
 20
1032.067045
 11
-78.936058
 21
1043.808983
  0
LINE
  8
4
 62
1
 10
-78.936058
 20
1043.808983
 11
-69.632110
 21
1055.531370
  0
LINE
  8
4
 62
1
 10
-69.632110
 20
1055.531370
 11
-60.314023
 21
1067.234363
  0
LINE
  8
4
 62
1
 10
-60.314023
 20
1067.234363
 11
11.380898
 21
1156.179600
  0
LINE
  8
4
 62
1
 10
11.380898
 20
1156.179600
 11
83.616566
 21
1244.362094
  0
LINE
  8
4
 62
1
 10
83.616566
 20
1244.362094
 11
156.118185
 21
1332.141261
  0
LINE
  8
4
 62
1
 10
156.118185
 20
1332.141261
 11
228.613899
 21
1419.872335
  0
LINE
  8
4
 62
1
 10
228.613899
 20
1419.872335
 11
302.287876
 21
1509.831331
  0
LINE
  8
4
 62
1
 10
302.287876
 20
1509.831331
 11
375.622572
 21
1600.171029
  0
LINE
  8
4
 62
1
 10
375.622572
 20
1600.171029
 11
448.840141
 21
1690.564994
  0
LINE
  8
4
 62
1
 10
448.840141
 20
1690.564994
 11
522.165930
 21
1780.682253
  0
LINE
  8
4
 62
1
 10
522.165930
 20
1780.682253
 11
531.111754
 21
1791.619106
  0
LINE
  8
4
 62
1
 10
531.111754
 20
1791.619106
 11
540.062579
 21
1802.546854
  0
LINE
  8
4
 62
1
 10
540.062579
 20
1802.546854
 11
549.018420
 21
1813.465452
  0
LINE
  8
4
 62
1
 10
549.018420
 20
1813.465452
 11
557.979296
 21
1824.374859
  0
LINE
  8
4
 62
1
 10
557.979296
 20
1824.374859
 11
654.054625
 21
1940.579278
  0
LINE
  8
4
 62
1
 10
654.054625
 20
1940.579278
 11
750.248208
 21
2056.358233
  0
LINE
  8
4
 62
1
 10
750.248208
 20
2056.358233
 11
846.107975
 21
2172.331927
  0
LINE
  8
4
 62
1
 10
846.107975
 20
2172.331927
 11
941.191032
 21
2289.107514
  0
LINE
  8
4
 62
1
 10
941.191032
 20
2289.107514
 11
990.709098
 21
2350.917929
  0
LINE
  8
4
 62
1
 10
990.709098
 20
2350.917929
 11
1040.019089
 21
2413.024424
  0
LINE
  8
4
 62
1
 10
1040.019089
 20
2413.024424
 11
1089.189731
 21
2475.329229
  0
LINE
  8
4
 62
1
 10
1089.189731
 20
2475.329229
 11
1138.290443
 21
2537.733582
  0
LINE
  8
4
 62
1
 10
1138.290443
 20
2537.733582
 11
1142.887581
 21
2543.579220
  0
LINE
  8
4
 62
1
 10
1142.887581
 20
2543.579220
 11
1147.484719
 21
2549.424858
  0
LINE
  8
4
 62
1
 10
1147.484719
 20
2549.424858
 11
1152.081857
 21
2555.270495
  0
LINE
  8
4
 62
1
 10
1152.081857
 20
2555.270495
 11
1156.678995
 21
2561.116133
  0
LINE
  8
4
 62
1
 10
-469.635276
 20
525.094853
 11
-469.022395
 21
515.211106
  0
LINE
  8
4
 62
1
 10
-469.022395
 20
515.211106
 11
-468.398119
 21
505.332126
  0
LINE
  8
4
 62
1
 10
-468.398119
 20
505.332126
 11
-467.763148
 21
495.457454
  0
LINE
  8
4
 62
1
 10
-467.763148
 20
495.457454
 11
-467.118182
 21
485.586633
  0
LINE
  8
4
 62
1
 10
-467.118182
 20
485.586633
 11
-465.229912
 21
457.488620
  0
LINE
  8
4
 62
1
 10
-465.229912
 20
457.488620
 11
-463.279264
 21
429.414753
  0
LINE
  8
4
 62
1
 10
-463.279264
 20
429.414753
 11
-461.285659
 21
401.365296
  0
LINE
  8
4
 62
1
 10
-461.285659
 20
401.365296
 11
-459.268639
 21
373.340441
  0
LINE
  8
4
 62
1
 10
-459.268639
 20
373.340441
 11
-458.844351
 21
367.464236
  0
LINE
  8
4
 62
1
 10
-458.844351
 20
367.464236
 11
-458.420080
 21
361.589120
  0
LINE
  8
4
 62
1
 10
-458.420080
 20
361.589120
 11
-457.996007
 21
355.715095
  0
LINE
  8
4
 62
1
 10
-457.996007
 20
355.715095
 11
-457.572316
 21
349.842160
  0
LINE
  8
4
 62
1
 10
-457.572316
 20
349.842160
 11
-456.866291
 21
340.055602
  0
LINE
  8
4
 62
1
 10
-456.866291
 20
340.055602
 11
-456.159835
 21
330.269591
  0
LINE
  8
4
 62
1
 10
-456.159835
 20
330.269591
 11
-455.453183
 21
320.484024
  0
LINE
  8
4
 62
1
 10
-455.453183
 20
320.484024
 11
-454.746568
 21
310.698799
  0
LINE
  8
4
 62
1
 10
941.191032
 20
2289.107514
 11
940.954842
 21
2278.835653
  0
LINE
  8
4
 62
1
 10
940.954842
 20
2278.835653
 11
940.717395
 21
2268.561671
  0
LINE
  8
4
 62
1
 10
940.717395
 20
2268.561671
 11
940.478486
 21
2258.285467
  0
LINE
  8
4
 62
1
 10
940.478486
 20
2258.285467
 11
940.237910
 21
2248.006939
  0
LINE
  8
4
 62
1
 10
940.237910
 20
2248.006939
 11
934.129226
 21
1983.970105
  0
LINE
  8
4
 62
1
 10
934.129226
 20
1983.970105
 11
928.874779
 21
1719.413087
  0
LINE
  8
4
 62
1
 10
928.874779
 20
1719.413087
 11
924.951670
 21
1455.611222
  0
LINE
  8
4
 62
1
 10
924.951670
 20
1455.611222
 11
922.065279
 21
1193.394299
  0
LINE
  8
4
 62
1
 10
922.065279
 20
1193.394299
 11
921.962717
 21
1183.175160
  0
LINE
  8
4
 62
1
 10
921.962717
 20
1183.175160
 11
921.862426
 21
1172.962624
  0
LINE
  8
4
 62
1
 10
921.862426
 20
1172.962624
 11
921.763391
 21
1162.756201
  0
LINE
  8
4
 62
1
 10
921.763391
 20
1162.756201
 11
921.664594
 21
1152.555401
  0
LINE
  8
4
 62
1
 10
921.664594
 20
1152.555401
 11
921.566317
 21
1142.359135
  0
LINE
  8
4
 62
1
 10
921.566317
 20
1142.359135
 11
921.469220
 21
1132.163932
  0
LINE
  8
4
 62
1
 10
921.469220
 20
1132.163932
 11
921.372842
 21
1121.969533
  0
LINE
  8
4
 62
1
 10
921.372842
 20
1121.969533
 11
921.276722
 21
1111.775678
  0
LINE
  8
4
 62
1
 10
228.613899
 20
1419.872335
 11
403.253919
 21
1362.711719
  0
LINE
  8
4
 62
1
 10
403.253919
 20
1362.711719
 11
576.631471
 21
1304.152780
  0
LINE
  8
4
 62
1
 10
576.631471
 20
1304.152780
 11
749.443293
 21
1247.003818
  0
LINE
  8
4
 62
1
 10
749.443293
 20
1247.003818
 11
922.065279
 21
1193.394299
  0
LINE
  8
4
 62
1
 10
-1045.928963
 20
465.549054
 11
-1041.372614
 21
471.540242
  0
LINE
  8
4
 62
1
 10
-1041.372614
 20
471.540242
 11
-1036.816264
 21
477.531430
  0
LINE
  8
4
 62
1
 10
-1036.816264
 20
477.531430
 11
-1032.259914
 21
483.522618
  0
LINE
  8
4
 62
1
 10
-1032.259914
 20
483.522618
 11
-1027.703564
 21
489.513807
  0
LINE
  8
4
 62
1
 10
-1027.703564
 20
489.513807
 11
-980.521030
 21
551.583972
  0
LINE
  8
4
 62
1
 10
-980.521030
 20
551.583972
 11
-933.402324
 21
613.745002
  0
LINE
  8
4
 62
1
 10
-933.402324
 20
613.745002
 11
-886.410830
 21
676.087068
  0
LINE
  8
4
 62
1
 10
-886.410830
 20
676.087068
 11
-839.609312
 21
738.699462
  0
LINE
  8
4
 62
1
 10
-839.609312
 20
738.699462
 11
-747.186686
 21
863.465898
  0
LINE
  8
4
 62
1
 10
-747.186686
 20
863.465898
 11
-654.934562
 21
988.147265
  0
LINE
  8
4
 62
1
 10
-654.934562
 20
988.147265
 11
-562.367563
 21
1112.129561
  0
LINE
  8
4
 62
1
 10
-562.367563
 20
1112.129561
 11
-468.990734
 21
1234.785156
  0
LINE
  8
4
 62
1
 10
-468.990734
 20
1234.785156
 11
-459.845697
 21
1246.621946
  0
LINE
  8
4
 62
1
 10
-459.845697
 20
1246.621946
 11
-450.688233
 21
1258.440201
  0
LINE
  8
4
 62
1
 10
-450.688233
 20
1258.440201
 11
-441.518337
 21
1270.239983
  0
LINE
  8
4
 62
1
 10
-441.518337
 20
1270.239983
 11
-432.336004
 21
1282.021353
  0
LINE
  8
4
 62
1
 10
-432.336004
 20
1282.021353
 11
-361.718058
 21
1371.588382
  0
LINE
  8
4
 62
1
 10
-361.718058
 20
1371.588382
 11
-290.574567
 21
1460.401446
  0
LINE
  8
4
 62
1
 10
-290.574567
 20
1460.401446
 11
-219.105739
 21
1548.776895
  0
LINE
  8
4
 62
1
 10
-219.105739
 20
1548.776895
 11
-147.508846
 21
1637.026903
  0
LINE
  8
4
 62
1
 10
-147.508846
 20
1637.026903
 11
-74.546148
 21
1727.396556
  0
LINE
  8
4
 62
1
 10
-74.546148
 20
1727.396556
 11
-1.681138
 21
1818.007427
  0
LINE
  8
4
 62
1
 10
-1.681138
 20
1818.007427
 11
71.332915
 21
1908.518893
  0
LINE
  8
4
 62
1
 10
71.332915
 20
1908.518893
 11
144.745931
 21
1998.585791
  0
LINE
  8
4
 62
1
 10
144.745931
 20
1998.585791
 11
153.723416
 21
2009.504365
  0
LINE
  8
4
 62
1
 10
153.723416
 20
2009.504365
 11
162.710619
 21
2020.411109
  0
LINE
  8
4
 62
1
 10
162.710619
 20
2020.411109
 11
171.707603
 21
2031.305954
  0
LINE
  8
4
 62
1
 10
171.707603
 20
2031.305954
 11
180.714428
 21
2042.188832
  0
LINE
  8
4
 62
1
 10
180.714428
 20
2042.188832
 11
277.593530
 21
2157.929193
  0
LINE
  8
4
 62
1
 10
277.593530
 20
2157.929193
 11
375.200044
 21
2272.892392
  0
LINE
  8
4
 62
1
 10
375.200044
 20
2272.892392
 11
473.136152
 21
2387.667310
  0
LINE
  8
4
 62
1
 10
473.136152
 20
2387.667310
 11
571.013213
 21
2502.829778
  0
LINE
  8
4
 62
1
 10
571.013213
 20
2502.829778
 11
622.196145
 21
2563.678981
  0
LINE
  8
4
 62
1
 10
622.196145
 20
2563.678981
 11
673.171003
 21
2624.824265
  0
LINE
  8
4
 62
1
 10
673.171003
 20
2624.824265
 11
724.006511
 21
2686.167859
  0
LINE
  8
4
 62
1
 10
724.006511
 20
2686.167859
 11
774.772089
 21
2747.611002
  0
LINE
  8
4
 62
1
 10
774.772089
 20
2747.611002
 11
779.525139
 21
2753.366623
  0
LINE
  8
4
 62
1
 10
779.525139
 20
2753.366623
 11
784.278189
 21
2759.122245
  0
LINE
  8
4
 62
1
 10
784.278189
 20
2759.122245
 11
789.031240
 21
2764.877867
  0
LINE
  8
4
 62
1
 10
789.031240
 20
2764.877867
 11
793.784290
 21
2770.633489
  0
LINE
  8
4
 62
1
 10
-839.609312
 20
738.699462
 11
-838.976629
 21
728.804283
  0
LINE
  8
4
 62
1
 10
-838.976629
 20
728.804283
 11
-838.335695
 21
718.915684
  0
LINE
  8
4
 62
1
 10
-838.335695
 20
718.915684
 11
-837.687299
 21
709.033262
  0
LINE
  8
4
 62
1
 10
-837.687299
 20
709.033262
 11
-837.032237
 21
699.156612
  0
LINE
  8
4
 62
1
 10
-837.032237
 20
699.156612
 11
-835.136951
 21
671.054548
  0
LINE
  8
4
 62
1
 10
-835.136951
 20
671.054548
 11
-833.199862
 21
642.988510
  0
LINE
  8
4
 62
1
 10
-833.199862
 20
642.988510
 11
-831.220517
 21
614.947285
  0
LINE
  8
4
 62
1
 10
-831.220517
 20
614.947285
 11
-829.198579
 21
586.919592
  0
LINE
  8
4
 62
1
 10
-829.198579
 20
586.919592
 11
-828.768969
 21
581.040313
  0
LINE
  8
4
 62
1
 10
-828.768969
 20
581.040313
 11
-828.337472
 21
575.161026
  0
LINE
  8
4
 62
1
 10
-828.337472
 20
575.161026
 11
-827.904089
 21
569.281625
  0
LINE
  8
4
 62
1
 10
-827.904089
 20
569.281625
 11
-827.468818
 21
563.402004
  0
LINE
  8
4
 62
1
 10
-827.468818
 20
563.402004
 11
-826.741261
 21
553.603016
  0
LINE
  8
4
 62
1
 10
-826.741261
 20
553.603016
 11
-826.012761
 21
543.804277
  0
LINE
  8
4
 62
1
 10
-826.012761
 20
543.804277
 11
-825.283494
 21
534.005653
  0
LINE
  8
4
 62
1
 10
-825.283494
 20
534.005653
 11
-824.553636
 21
524.207010
  0
LINE
  8
4
 62
1
 10
571.013213
 20
2502.829778
 11
570.868951
 21
2492.504842
  0
LINE
  8
4
 62
1
 10
570.868951
 20
2492.504842
 11
570.721014
 21
2482.179181
  0
LINE
  8
4
 62
1
 10
570.721014
 20
2482.179181
 11
570.569225
 21
2471.852678
  0
LINE
  8
4
 62
1
 10
570.569225
 20
2471.852678
 11
570.413408
 21
2461.525214
  0
LINE
  8
4
 62
1
 10
570.413408
 20
2461.525214
 11
564.989528
 21
2197.093009
  0
LINE
  8
4
 62
1
 10
564.989528
 20
2197.093009
 11
558.662990
 21
1933.154963
  0
LINE
  8
4
 62
1
 10
558.662990
 20
1933.154963
 11
553.642748
 21
1669.986527
  0
LINE
  8
4
 62
1
 10
553.642748
 20
1669.986527
 11
551.366037
 21
1407.417606
  0
LINE
  8
4
 62
1
 10
551.366037
 20
1407.417606
 11
551.347827
 21
1397.149766
  0
LINE
  8
4
 62
1
 10
551.347827
 20
1397.149766
 11
551.341053
 21
1386.883239
  0
LINE
  8
4
 62
1
 10
551.341053
 20
1386.883239
 11
551.344864
 21
1376.617438
  0
LINE
  8
4
 62
1
 10
551.344864
 20
1376.617438
 11
551.358410
 21
1366.351775
  0
LINE
  8
4
 62
1
 10
551.358410
 20
1366.351775
 11
551.377608
 21
1356.087686
  0
LINE
  8
4
 62
1
 10
551.377608
 20
1356.087686
 11
551.398643
 21
1345.824279
  0
LINE
  8
4
 62
1
 10
551.398643
 20
1345.824279
 11
551.421068
 21
1335.561289
  0
LINE
  8
4
 62
1
 10
551.421068
 20
1335.561289
 11
551.444433
 21
1325.298450
  0
LINE
  8
4
 62
1
 10
-147.508846
 20
1637.026903
 11
26.077821
 21
1580.474441
  0
LINE
  8
4
 62
1
 10
26.077821
 20
1580.474441
 11
199.347666
 21
1521.977686
  0
LINE
  8
4
 62
1
 10
199.347666
 20
1521.977686
 11
373.988186
 21
1463.772925
  0
LINE
  8
4
 62
1
 10
373.988186
 20
1463.772925
 11
551.366037
 21
1407.417606
  0
LINE
  8
4
 62
1
 10
-1539.533156
 20
834.341709
 11
-1534.945047
 21
840.307868
  0
LINE
  8
4
 62
1
 10
-1534.945047
 20
840.307868
 11
-1530.356938
 21
846.274028
  0
LINE
  8
4
 62
1
 10
-1530.356938
 20
846.274028
 11
-1525.768829
 21
852.240188
  0
LINE
  8
4
 62
1
 10
-1525.768829
 20
852.240188
 11
-1521.180719
 21
858.206348
  0
LINE
  8
4
 62
1
 10
-1521.180719
 20
858.206348
 11
-1473.669234
 21
920.017281
  0
LINE
  8
4
 62
1
 10
-1473.669234
 20
920.017281
 11
-1426.221578
 21
981.919079
  0
LINE
  8
4
 62
1
 10
-1426.221578
 20
981.919079
 11
-1378.901133
 21
1044.001912
  0
LINE
  8
4
 62
1
 10
-1378.901133
 20
1044.001912
 11
-1331.770664
 21
1106.355074
  0
LINE
  8
4
 62
1
 10
-1331.770664
 20
1106.355074
 11
-1238.316106
 21
1229.787684
  0
LINE
  8
4
 62
1
 10
-1238.316106
 20
1229.787684
 11
-1144.445347
 21
1351.865125
  0
LINE
  8
4
 62
1
 10
-1144.445347
 20
1351.865125
 11
-1049.958466
 21
1472.490354
  0
LINE
  8
4
 62
1
 10
-1049.958466
 20
1472.490354
 11
-954.645961
 21
1591.552691
  0
LINE
  8
4
 62
1
 10
-954.645961
 20
1591.552691
 11
-945.322438
 21
1603.046636
  0
LINE
  8
4
 62
1
 10
-945.322438
 20
1603.046636
 11
-935.989303
 21
1614.525178
  0
LINE
  8
4
 62
1
 10
-935.989303
 20
1614.525178
 11
-926.646813
 21
1625.988856
  0
LINE
  8
4
 62
1
 10
-926.646813
 20
1625.988856
 11
-917.295224
 21
1637.438205
  0
LINE
  8
4
 62
1
 10
-917.295224
 20
1637.438205
 11
-845.521041
 21
1724.651185
  0
LINE
  8
4
 62
1
 10
-845.521041
 20
1724.651185
 11
-773.549709
 21
1811.589992
  0
LINE
  8
4
 62
1
 10
-773.549709
 20
1811.589992
 11
-701.699038
 21
1898.783953
  0
LINE
  8
4
 62
1
 10
-701.699038
 20
1898.783953
 11
-630.283902
 21
1986.758215
  0
LINE
  8
4
 62
1
 10
-630.283902
 20
1986.758215
 11
-557.988807
 21
2077.668081
  0
LINE
  8
4
 62
1
 10
-557.988807
 20
2077.668081
 11
-486.031245
 21
2169.324608
  0
LINE
  8
4
 62
1
 10
-486.031245
 20
2169.324608
 11
-414.074070
 21
2261.268795
  0
LINE
  8
4
 62
1
 10
-414.074070
 20
2261.268795
 11
-341.776946
 21
2353.037096
  0
LINE
  8
4
 62
1
 10
-341.776946
 20
2353.037096
 11
-332.934982
 21
2364.175448
  0
LINE
  8
4
 62
1
 10
-332.934982
 20
2364.175448
 11
-324.082671
 21
2375.303984
  0
LINE
  8
4
 62
1
 10
-324.082671
 20
2375.303984
 11
-315.219788
 21
2386.422422
  0
LINE
  8
4
 62
1
 10
-315.219788
 20
2386.422422
 11
-306.346109
 21
2397.530479
  0
LINE
  8
4
 62
1
 10
-306.346109
 20
2397.530479
 11
-210.788108
 21
2515.721815
  0
LINE
  8
4
 62
1
 10
-210.788108
 20
2515.721815
 11
-114.175186
 21
2633.031723
  0
LINE
  8
4
 62
1
 10
-114.175186
 20
2633.031723
 11
-16.705548
 21
2749.787733
  0
LINE
  8
4
 62
1
 10
-16.705548
 20
2749.787733
 11
81.431775
 21
2866.304324
  0
LINE
  8
4
 62
1
 10
81.431775
 20
2866.304324
 11
132.984942
 21
2927.663949
  0
LINE
  8
4
 62
1
 10
132.984942
 20
2927.663949
 11
184.330035
 21
2989.319655
  0
LINE
  8
4
 62
1
 10
184.330035
 20
2989.319655
 11
235.535777
 21
3051.173671
  0
LINE
  8
4
 62
1
 10
235.535777
 20
3051.173671
 11
286.671590
 21
3113.127235
  0
LINE
  8
4
 62
1
 10
286.671590
 20
3113.127235
 11
291.459313
 21
3118.930657
  0
LINE
  8
4
 62
1
 10
291.459313
 20
3118.930657
 11
296.247035
 21
3124.734080
  0
LINE
  8
4
 62
1
 10
296.247035
 20
3124.734080
 11
301.034758
 21
3130.537502
  0
LINE
  8
4
 62
1
 10
301.034758
 20
3130.537502
 11
305.822481
 21
3136.340924
  0
LINE
  8
4
 62
1
 10
-1331.770664
 20
1106.355074
 11
-1331.130861
 21
1096.437981
  0
LINE
  8
4
 62
1
 10
-1331.130861
 20
1096.437981
 11
-1330.465793
 21
1086.539746
  0
LINE
  8
4
 62
1
 10
-1330.465793
 20
1086.539746
 11
-1329.776643
 21
1076.659816
  0
LINE
  8
4
 62
1
 10
-1329.776643
 20
1076.659816
 11
-1329.064599
 21
1066.797637
  0
LINE
  8
4
 62
1
 10
-1329.064599
 20
1066.797637
 11
-1326.922664
 21
1038.797674
  0
LINE
  8
4
 62
1
 10
-1326.922664
 20
1038.797674
 11
-1324.632648
 21
1010.910208
  0
LINE
  8
4
 62
1
 10
-1324.632648
 20
1010.910208
 11
-1322.219511
 21
983.106290
  0
LINE
  8
4
 62
1
 10
-1322.219511
 20
983.106290
 11
-1319.708330
 21
955.356901
  0
LINE
  8
4
 62
1
 10
-1319.708330
 20
955.356901
 11
-1319.171420
 21
949.539553
  0
LINE
  8
4
 62
1
 10
-1319.171420
 20
949.539553
 11
-1318.631537
 21
943.723056
  0
LINE
  8
4
 62
1
 10
-1318.631537
 20
943.723056
 11
-1318.088913
 21
937.907141
  0
LINE
  8
4
 62
1
 10
-1318.088913
 20
937.907141
 11
-1317.543783
 21
932.091539
  0
LINE
  8
4
 62
1
 10
-1317.543783
 20
932.091539
 11
-1316.632509
 21
922.399199
  0
LINE
  8
4
 62
1
 10
-1316.632509
 20
922.399199
 11
-1315.720200
 21
912.707179
  0
LINE
  8
4
 62
1
 10
-1315.720200
 20
912.707179
 11
-1314.807608
 21
903.015005
  0
LINE
  8
4
 62
1
 10
-1314.807608
 20
903.015005
 11
-1313.895483
 21
893.322202
  0
LINE
  8
4
 62
1
 10
81.431775
 20
2866.304324
 11
81.597671
 21
2856.099993
  0
LINE
  8
4
 62
1
 10
81.597671
 20
2856.099993
 11
81.753811
 21
2845.893271
  0
LINE
  8
4
 62
1
 10
81.753811
 20
2845.893271
 11
81.900966
 21
2835.684568
  0
LINE
  8
4
 62
1
 10
81.900966
 20
2835.684568
 11
82.039900
 21
2825.474295
  0
LINE
  8
4
 62
1
 10
82.039900
 20
2825.474295
 11
83.209655
 21
2564.108319
  0
LINE
  8
4
 62
1
 10
83.209655
 20
2564.108319
 11
82.557513
 21
2303.557046
  0
LINE
  8
4
 62
1
 10
82.557513
 20
2303.557046
 11
83.639958
 21
2044.352975
  0
LINE
  8
4
 62
1
 10
83.639958
 20
2044.352975
 11
89.241760
 21
1786.583054
  0
LINE
  8
4
 62
1
 10
89.241760
 20
1786.583054
 11
89.587424
 21
1776.521659
  0
LINE
  8
4
 62
1
 10
89.587424
 20
1776.521659
 11
89.950853
 21
1766.460481
  0
LINE
  8
4
 62
1
 10
89.950853
 20
1766.460481
 11
90.330716
 21
1756.398567
  0
LINE
  8
4
 62
1
 10
90.330716
 20
1756.398567
 11
90.725682
 21
1746.334957
  0
LINE
  8
4
 62
1
 10
90.725682
 20
1746.334957
 11
91.129055
 21
1736.272556
  0
LINE
  8
4
 62
1
 10
91.129055
 20
1736.272556
 11
91.534552
 21
1726.210659
  0
LINE
  8
4
 62
1
 10
91.534552
 20
1726.210659
 11
91.941457
 21
1716.148841
  0
LINE
  8
4
 62
1
 10
91.941457
 20
1716.148841
 11
92.349055
 21
1706.086676
  0
LINE
  8
4
 62
1
 10
-630.283902
 20
1986.758215
 11
-456.064277
 21
1933.402685
  0
LINE
  8
4
 62
1
 10
-456.064277
 20
1933.402685
 11
-279.095504
 21
1882.447723
  0
LINE
  8
4
 62
1
 10
-279.095504
 20
1882.447723
 11
-97.759304
 21
1833.773925
  0
LINE
  8
4
 62
1
 10
-97.759304
 20
1833.773925
 11
89.241760
 21
1786.583054
  0
LINE
  8
4
 62
1
 10
384.852138
 20
108.575649
 11
331.742493
 21
131.419454
  0
LINE
  8
4
 62
1
 10
331.742493
 20
131.419454
 11
278.631593
 21
154.262040
  0
LINE
  8
4
 62
1
 10
278.631593
 20
154.262040
 11
225.516617
 21
177.100668
  0
LINE
  8
4
 62
1
 10
225.516617
 20
177.100668
 11
172.392861
 21
199.930768
  0
LINE
  8
4
 62
1
 10
172.392861
 20
199.930768
 11
9.189949
 21
269.444628
  0
LINE
  8
4
 62
1
 10
9.189949
 20
269.444628
 11
-153.491233
 21
339.322190
  0
LINE
  8
4
 62
1
 10
-153.491233
 20
339.322190
 11
-313.066931
 21
410.958020
  0
LINE
  8
4
 62
1
 10
-313.066931
 20
410.958020
 11
-467.118182
 21
485.586633
  0
LINE
  8
4
 62
1
 10
-467.118182
 20
485.586633
 11
-564.060501
 21
536.435399
  0
LINE
  8
4
 62
1
 10
-564.060501
 20
536.435399
 11
-658.031967
 21
588.975112
  0
LINE
  8
4
 62
1
 10
-658.031967
 20
588.975112
 11
-749.017529
 21
643.220389
  0
LINE
  8
4
 62
1
 10
-749.017529
 20
643.220389
 11
-837.032237
 21
699.156612
  0
LINE
  8
4
 62
1
 10
-837.032237
 20
699.156612
 11
-965.866837
 21
787.852222
  0
LINE
  8
4
 62
1
 10
-965.866837
 20
787.852222
 11
-1089.176991
 21
879.540614
  0
LINE
  8
4
 62
1
 10
-1089.176991
 20
879.540614
 11
-1209.381660
 21
972.987274
  0
LINE
  8
4
 62
1
 10
-1209.381660
 20
972.987274
 11
-1329.064599
 21
1066.797637
  0
LINE
  8
4
 62
1
 10
-1329.064599
 20
1066.797637
 11
-1368.395056
 21
1097.346000
  0
LINE
  8
4
 62
1
 10
-1368.395056
 20
1097.346000
 11
-1407.734291
 21
1127.885837
  0
LINE
  8
4
 62
1
 10
-1407.734291
 20
1127.885837
 11
-1447.077603
 21
1158.421715
  0
LINE
  8
4
 62
1
 10
-1447.077603
 20
1158.421715
 11
-1486.422169
 21
1188.956374
  0
LINE
  8
4
 62
1
 10
1797.394432
 20
1866.758330
 11
1743.863169
 21
1889.761522
  0
LINE
  8
4
 62
1
 10
1743.863169
 20
1889.761522
 11
1690.330651
 21
1912.763496
  0
LINE
  8
4
 62
1
 10
1690.330651
 20
1912.763496
 11
1636.794057
 21
1935.761511
  0
LINE
  8
4
 62
1
 10
1636.794057
 20
1935.761511
 11
1583.248684
 21
1958.750999
  0
LINE
  8
4
 62
1
 10
1583.248684
 20
1958.750999
 11
1418.869494
 21
2029.017958
  0
LINE
  8
4
 62
1
 10
1418.869494
 20
2029.017958
 11
1255.206158
 21
2099.974566
  0
LINE
  8
4
 62
1
 10
1255.206158
 20
2099.974566
 11
1094.852590
 21
2172.673388
  0
LINE
  8
4
 62
1
 10
1094.852590
 20
2172.673388
 11
940.237910
 21
2248.006939
  0
LINE
  8
4
 62
1
 10
940.237910
 20
2248.006939
 11
843.086202
 21
2299.050375
  0
LINE
  8
4
 62
1
 10
843.086202
 20
2299.050375
 11
749.059865
 21
2351.646361
  0
LINE
  8
4
 62
1
 10
749.059865
 20
2351.646361
 11
658.173951
 21
2405.809513
  0
LINE
  8
4
 62
1
 10
658.173951
 20
2405.809513
 11
570.413408
 21
2461.525214
  0
LINE
  8
4
 62
1
 10
570.413408
 20
2461.525214
 11
442.182018
 21
2549.492918
  0
LINE
  8
4
 62
1
 10
442.182018
 20
2549.492918
 11
319.689515
 21
2640.095351
  0
LINE
  8
4
 62
1
 10
319.689515
 20
2640.095351
 11
200.506780
 21
2732.439998
  0
LINE
  8
4
 62
1
 10
200.506780
 20
2732.439998
 11
82.039900
 21
2825.474295
  0
LINE
  8
4
 62
1
 10
82.039900
 20
2825.474295
 11
43.131062
 21
2855.863270
  0
LINE
  8
4
 62
1
 10
43.131062
 20
2855.863270
 11
4.213444
 21
2886.243719
  0
LINE
  8
4
 62
1
 10
4.213444
 20
2886.243719
 11
-34.708250
 21
2916.620209
  0
LINE
  8
4
 62
1
 10
-34.708250
 20
2916.620209
 11
-73.631198
 21
2946.995481
  0
LINE
  8
4
 62
1
 10
406.417596
 20
-60.540327
 11
391.160585
 21
-54.443625
  0
LINE
  8
4
 62
1
 10
391.160585
 20
-54.443625
 11
375.903568
 21
-48.346926
  0
LINE
  8
4
 62
1
 10
375.903568
 20
-48.346926
 11
360.646534
 21
-42.250240
  0
LINE
  8
4
 62
1
 10
360.646534
 20
-42.250240
 11
345.389464
 21
-36.153577
  0
LINE
  8
4
 62
1
 10
345.389464
 20
-36.153577
 11
305.928433
 21
-20.440446
  0
LINE
  8
4
 62
1
 10
305.928433
 20
-20.440446
 11
266.383481
 21
-4.764903
  0
LINE
  8
4
 62
1
 10
266.383481
 20
-4.764903
 11
226.816569
 21
10.907946
  0
LINE
  8
4
 62
1
 10
226.816569
 20
10.907946
 11
187.289306
 21
26.612760
  0
LINE
  8
4
 62
1
 10
187.289306
 20
26.612760
 11
20.825965
 21
94.126930
  0
LINE
  8
4
 62
1
 10
20.825965
 20
94.126930
 11
-142.499415
 21
163.584694
  0
LINE
  8
4
 62
1
 10
-142.499415
 20
163.584694
 11
-301.410692
 21
235.596973
  0
LINE
  8
4
 62
1
 10
-301.410692
 20
235.596973
 11
-454.746568
 21
310.698799
  0
LINE
  8
4
 62
1
 10
-454.746568
 20
310.698799
 11
-551.505054
 21
361.695491
  0
LINE
  8
4
 62
1
 10
-551.505054
 20
361.695491
 11
-645.395890
 21
414.276779
  0
LINE
  8
4
 62
1
 10
-645.395890
 20
414.276779
 11
-736.408588
 21
468.449596
  0
LINE
  8
4
 62
1
 10
-736.408588
 20
468.449596
 11
-824.553636
 21
524.207010
  0
LINE
  8
4
 62
1
 10
-824.553636
 20
524.207010
 11
-954.062190
 21
612.405491
  0
LINE
  8
4
 62
1
 10
-954.062190
 20
612.405491
 11
-1077.995343
 21
703.693520
  0
LINE
  8
4
 62
1
 10
-1077.995343
 20
703.693520
 11
-1197.514393
 21
797.536064
  0
LINE
  8
4
 62
1
 10
-1197.514393
 20
797.536064
 11
-1313.895483
 21
893.322202
  0
LINE
  8
4
 62
1
 10
-1313.895483
 20
893.322202
 11
-1341.016183
 21
916.096608
  0
LINE
  8
4
 62
1
 10
-1341.016183
 20
916.096608
 11
-1368.097236
 21
938.902979
  0
LINE
  8
4
 62
1
 10
-1368.097236
 20
938.902979
 11
-1395.200249
 21
961.706656
  0
LINE
  8
4
 62
1
 10
-1395.200249
 20
961.706656
 11
-1422.387183
 21
984.472745
  0
LINE
  8
4
 62
1
 10
-1422.387183
 20
984.472745
 11
-1432.939509
 21
993.277146
  0
LINE
  8
4
 62
1
 10
-1432.939509
 20
993.277146
 11
-1443.491873
 21
1002.081521
  0
LINE
  8
4
 62
1
 10
-1443.491873
 20
1002.081521
 11
-1454.044254
 21
1010.885886
  0
LINE
  8
4
 62
1
 10
-1454.044254
 20
1010.885886
 11
-1464.596641
 21
1019.690246
  0
LINE
  8
4
 62
1
 10
345.389464
 20
-36.153577
 11
345.401724
 21
-46.350334
  0
LINE
  8
4
 62
1
 10
345.401724
 20
-46.350334
 11
345.411989
 21
-56.549020
  0
LINE
  8
4
 62
1
 10
345.411989
 20
-56.549020
 11
345.419041
 21
-66.750291
  0
LINE
  8
4
 62
1
 10
345.419041
 20
-66.750291
 11
345.421663
 21
-76.954803
  0
LINE
  8
4
 62
1
 10
-1422.387183
 20
984.472745
 11
-1422.370557
 21
974.273469
  0
LINE
  8
4
 62
1
 10
-1422.370557
 20
974.273469
 11
-1422.357277
 21
964.073041
  0
LINE
  8
4
 62
1
 10
-1422.357277
 20
964.073041
 11
-1422.348476
 21
953.870761
  0
LINE
  8
4
 62
1
 10
-1422.348476
 20
953.870761
 11
-1422.345290
 21
943.665923
  0
LINE
  8
4
 62
1
 10
1823.645612
 20
757.533987
 11
1807.645445
 21
763.233876
  0
LINE
  8
4
 62
1
 10
1807.645445
 20
763.233876
 11
1791.645273
 21
768.933761
  0
LINE
  8
4
 62
1
 10
1791.645273
 20
768.933761
 11
1775.645084
 21
774.633635
  0
LINE
  8
4
 62
1
 10
1775.645084
 20
774.633635
 11
1759.644858
 21
780.333485
  0
LINE
  8
4
 62
1
 10
1759.644858
 20
780.333485
 11
1718.243077
 21
795.047034
  0
LINE
  8
4
 62
1
 10
1718.243077
 20
795.047034
 11
1676.721454
 21
809.767277
  0
LINE
  8
4
 62
1
 10
1676.721454
 20
809.767277
 11
1635.152075
 21
824.521108
  0
LINE
  8
4
 62
1
 10
1635.152075
 20
824.521108
 11
1593.606672
 21
839.335187
  0
LINE
  8
4
 62
1
 10
1593.606672
 20
839.335187
 11
1418.298058
 21
903.179108
  0
LINE
  8
4
 62
1
 10
1418.298058
 20
903.179108
 11
1246.294093
 21
969.278598
  0
LINE
  8
4
 62
1
 10
1246.294093
 20
969.278598
 11
1079.892641
 21
1038.535477
  0
LINE
  8
4
 62
1
 10
1079.892641
 20
1038.535477
 11
921.276722
 21
1111.775678
  0
LINE
  8
4
 62
1
 10
921.276722
 20
1111.775678
 11
822.634794
 21
1162.128205
  0
LINE
  8
4
 62
1
 10
822.634794
 20
1162.128205
 11
728.111940
 21
1214.497200
  0
LINE
  8
4
 62
1
 10
728.111940
 20
1214.497200
 11
637.718649
 21
1268.889591
  0
LINE
  8
4
 62
1
 10
637.718649
 20
1268.889591
 11
551.444433
 21
1325.298450
  0
LINE
  8
4
 62
1
 10
551.444433
 20
1325.298450
 11
427.204020
 21
1415.365428
  0
LINE
  8
4
 62
1
 10
427.204020
 20
1415.365428
 11
310.749140
 21
1509.415728
  0
LINE
  8
4
 62
1
 10
310.749140
 20
1509.415728
 11
199.896773
 21
1606.623417
  0
LINE
  8
4
 62
1
 10
199.896773
 20
1606.623417
 11
92.349055
 21
1706.086676
  0
LINE
  8
4
 62
1
 10
92.349055
 20
1706.086676
 11
67.245603
 21
1729.752331
  0
LINE
  8
4
 62
1
 10
67.245603
 20
1729.752331
 11
42.166128
 21
1753.478234
  0
LINE
  8
4
 62
1
 10
42.166128
 20
1753.478234
 11
17.038896
 21
1777.237725
  0
LINE
  8
4
 62
1
 10
17.038896
 20
1777.237725
 11
-8.208178
 21
1801.003911
  0
LINE
  8
4
 62
1
 10
-8.208178
 20
1801.003911
 11
-18.017349
 21
1810.205124
  0
LINE
  8
4
 62
1
 10
-18.017349
 20
1810.205124
 11
-27.826557
 21
1819.406313
  0
LINE
  8
4
 62
1
 10
-27.826557
 20
1819.406313
 11
-37.635783
 21
1828.607490
  0
LINE
  8
4
 62
1
 10
-37.635783
 20
1828.607490
 11
-47.445014
 21
1837.808663
  0
LINE
  8
4
 62
1
 10
1759.644858
 20
780.333485
 11
1759.638516
 21
770.142695
  0
LINE
  8
4
 62
1
 10
1759.638516
 20
770.142695
 11
1759.635742
 21
759.947653
  0
LINE
  8
4
 62
1
 10
1759.635742
 20
759.947653
 11
1759.635118
 21
749.747600
  0
LINE
  8
4
 62
1
 10
1759.635118
 20
749.747600
 11
1759.635225
 21
739.541778
  0
LINE
  8
4
 62
1
 10
-8.208178
 20
1801.003911
 11
-8.176700
 21
1790.791286
  0
LINE
  8
4
 62
1
 10
-8.176700
 20
1790.791286
 11
-8.152590
 21
1780.580722
  0
LINE
  8
4
 62
1
 10
-8.152590
 20
1780.580722
 11
-8.137162
 21
1770.371401
  0
LINE
  8
4
 62
1
 10
-8.137162
 20
1770.371401
 11
-8.131728
 21
1760.162504
  0
TEXT
  8
1
 62
7
 10
40.147846
 20
40.147846
 40
80.295692
  1
1
  0
TEXT
  8
1
 62
7
 10
58.825364
 20
63.382889
 40
80.295692
  1
2
  0
TEXT
  8
1
 62
7
 10
252.279880
 20
304.043623
 40
80.295692
  1
3
  0
TEXT
  8
1
 62
7
 10
636.292602
 20
781.761892
 40
80.295692
  1
4
  0
TEXT
  8
1
 62
7
 10
673.646932
 20
828.231570
 40
80.295692
  1
5
  0
TEXT
  8
1
 62
7
 10
959.386661
 20
1183.696215
 40
80.295692
  1
6
  0
TEXT
  8
1
 62
7
 10
1251.114171
 20
1546.610574
 40
80.295692
  1
7
  0
TEXT
  8
1
 62
7
 10
1286.632144
 20
1590.795286
 40
80.295692
  1
8
  0
TEXT
  8
1
 62
7
 10
1666.493443
 20
2063.349623
 40
80.295692
  1
9
  0
TEXT
  8
1
 62
7
 10
1865.936446
 20
2311.459663
 40
80.295692
  1
10
  0
TEXT
  8
1
 62
7
 10
1884.613964
 20
2334.694707
 40
80.295692
  1
11
  0
TEXT
  8
1
 62
7
 10
252.279880
 20
263.051412
 40
80.295692
  1
12
  0
TEXT
  8
1
 62
7
 10
252.279880
 20
146.292401
 40
80.295692
  1
13
  0
TEXT
  8
1
 62
7
 10
252.279880
 20
121.797504
 40
80.295692
  1
14
  0
TEXT
  8
1
 62
7
 10
252.279880
 20
80.972675
 40
80.295692
  1
15
  0
TEXT
  8
1
 62
7
 10
1666.493443
 20
2022.601544
 40
80.295692
  1
16
  0
TEXT
  8
1
 62
7
 10
1666.493443
 20
979.118914
 40
80.295692
  1
17
  0
TEXT
  8
1
 62
7
 10
1666.493443
 20
938.294085
 40
80.295692
  1
18
  0
TEXT
  8
1
 62
7
 10
1666.493443
 20
897.469256
 40
80.295692
  1
19
  0
TEXT
  8
1
 62
7
 10
-525.537579
 20
366.746478
 40
80.295692
  1
20
  0
TEXT
  8
1
 62
7
 10
-506.860061
 20
389.981521
 40
80.295692
  1
21
  0
TEXT
  8
1
 62
7
 10
-313.405545
 20
630.642256
 40
80.295692
  1
22
  0
TEXT
  8
1
 62
7
 10
70.607177
 20
1108.360525
 40
80.295692
  1
23
  0
TEXT
  8
1
 62
7
 10
107.961507
 20
1154.830203
 40
80.295692
  1
24
  0
TEXT
  8
1
 62
7
 10
393.701236
 20
1510.294847
 40
80.295692
  1
25
  0
TEXT
  8
1
 62
7
 10
685.428746
 20
1873.209206
 40
80.295692
  1
26
  0
TEXT
  8
1
 62
7
 10
720.946719
 20
1917.393919
 40
80.295692
  1
27
  0
TEXT
  8
1
 62
7
 10
1100.808018
 20
2389.948255
 40
80.295692
  1
28
  0
TEXT
  8
1
 62
7
 10
1300.251021
 20
2638.058296
 40
80.295692
  1
29
  0
TEXT
  8
1
 62
7
 10
1318.928539
 20
2661.293339
 40
80.295692
  1
30
  0
TEXT
  8
1
 62
7
 10
-313.405545
 20
589.650045
 40
80.295692
  1
31
  0
TEXT
  8
1
 62
7
 10
-313.405545
 20
472.891034
 40
80.295692
  1
32
  0
TEXT
  8
1
 62
7
 10
-313.405545
 20
448.396136
 40
80.295692
  1
33
  0
TEXT
  8
1
 62
7
 10
-313.405545
 20
407.571307
 40
80.295692
  1
34
  0
TEXT
  8
1
 62
7
 10
1100.808018
 20
2349.200177
 40
80.295692
  1
35
  0
TEXT
  8
1
 62
7
 10
1100.808018
 20
1305.717546
 40
80.295692
  1
36
  0
TEXT
  8
1
 62
7
 10
1100.808018
 20
1264.892717
 40
80.295692
  1
37
  0
TEXT
  8
1
 62
7
 10
1100.808018
 20
1224.067888
 40
80.295692
  1
38
  0
TEXT
  8
1
 62
7
 10
-895.354426
 20
580.260334
 40
80.295692
  1
39
  0
TEXT
  8
1
 62
7
 10
-876.676907
 20
603.495377
 40
80.295692
  1
40
  0
TEXT
  8
1
 62
7
 10
-683.222391
 20
844.156111
 40
80.295692
  1
41
  0
TEXT
  8
1
 62
7
 10
-299.209669
 20
1321.874381
 40
80.295692
  1
42
  0
TEXT
  8
1
 62
7
 10
-261.855339
 20
1368.344059
 40
80.295692
  1
43
  0
TEXT
  8
1
 62
7
 10
23.884390
 20
1723.808703
 40
80.295692
  1
44
  0
TEXT
  8
1
 62
7
 10
315.611899
 20
2086.723062
 40
80.295692
  1
45
  0
TEXT
  8
1
 62
7
 10
351.129873
 20
2130.907774
 40
80.295692
  1
46
  0
TEXT
  8
1
 62
7
 10
730.991171
 20
2603.462111
 40
80.295692
  1
47
  0
TEXT
  8
1
 62
7
 10
930.434174
 20
2851.572152
 40
80.295692
  1
48
  0
TEXT
  8
1
 62
7
 10
949.111693
 20
2874.807195
 40
80.295692
  1
49
  0
TEXT
  8
1
 62
7
 10
-683.222391
 20
803.163901
 40
80.295692
  1
50
  0
TEXT
  8
1
 62
7
 10
-683.222391
 20
686.404890
 40
80.295692
  1
51
  0
TEXT
  8
1
 62
7
 10
-683.222391
 20
661.909992
 40
80.295692
  1
52
  0
TEXT
  8
1
 62
7
 10
-683.222391
 20
621.085163
 40
80.295692
  1
53
  0
TEXT
  8
1
 62
7
 10
730.991171
 20
2562.714032
 40
80.295692
  1
54
  0
TEXT
  8
1
 62
7
 10
730.991171
 20
1519.231402
 40
80.295692
  1
55
  0
TEXT
  8
1
 62
7
 10
730.991171
 20
1478.406573
 40
80.295692
  1
56
  0
TEXT
  8
1
 62
7
 10
730.991171
 20
1437.581744
 40
80.295692
  1
57
  0
TEXT
  8
1
 62
7
 10
-1461.039851
 20
906.858966
 40
80.295692
  1
58
  0
TEXT
  8
1
 62
7
 10
-1442.362332
 20
930.094010
 40
80.295692
  1
59
  0
TEXT
  8
1
 62
7
 10
-1248.907816
 20
1170.754744
 40
80.295692
  1
60
  0
TEXT
  8
1
 62
7
 10
-864.895094
 20
1648.473013
 40
80.295692
  1
61
  0
TEXT
  8
1
 62
7
 10
-827.540764
 20
1694.942691
 40
80.295692
  1
62
  0
TEXT
  8
1
 62
7
 10
-541.801035
 20
2050.407335
 40
80.295692
  1
63
  0
TEXT
  8
1
 62
7
 10
-250.073526
 20
2413.321694
 40
80.295692
  1
64
  0
TEXT
  8
1
 62
7
 10
-214.555552
 20
2457.506407
 40
80.295692
  1
65
  0
TEXT
  8
1
 62
7
 10
165.305746
 20
2930.060743
 40
80.295692
  1
66
  0
TEXT
  8
1
 62
7
 10
364.748749
 20
3178.170784
 40
80.295692
  1
67
  0
TEXT
  8
1
 62
7
 10
383.426268
 20
3201.405827
 40
80.295692
  1
68
  0
TEXT
  8
1
 62
7
 10
-1248.907816
 20
1129.762533
 40
80.295692
  1
69
  0
TEXT
  8
1
 62
7
 10
-1248.907816
 20
1013.003522
 40
80.295692
  1
70
  0
TEXT
  8
1
 62
7
 10
-1248.907816
 20
988.508624
 40
80.295692
  1
71
  0
TEXT
  8
1
 62
7
 10
-1248.907816
 20
947.683795
 40
80.295692
  1
72
  0
TEXT
  8
1
 62
7
 10
165.305746
 20
2889.312665
 40
80.295692
  1
73
  0
TEXT
  8
1
 62
7
 10
165.305746
 20
1845.830034
 40
80.295692
  1
74
  0
TEXT
  8
1
 62
7
 10
165.305746
 20
1805.005205
 40
80.295692
  1
75
  0
TEXT
  8
1
 62
7
 10
165.305746
 20
1764.180376
 40
80.295692
  1
76
  0
TEXT
  8
1
 62
7
 10
437.188303
 20
156.294484
 40
80.295692
  1
77
  0
TEXT
  8
1
 62
7
 10
-1433.816240
 20
1236.519461
 40
80.295692
  1
78
  0
TEXT
  8
1
 62
7
 10
1851.401866
 20
1915.844616
 40
80.295692
  1
79
  0
TEXT
  8
1
 62
7
 10
-19.602677
 20
2996.069593
 40
80.295692
  1
80
  0
TEXT
  8
1
 62
7
 10
385.569508
 20
4.017872
 40
80.295692
  1
81
  0
TEXT
  8
1
 62
7
 10
437.188303
 20
-25.784253
 40
80.295692
  1
82
  0
TEXT
  8
1
 62
7
 10
-1382.197445
 20
1024.638598
 40
80.295692
  1
83
  0
TEXT
  8
1
 62
7
 10
-1433.816240
 20
1054.440723
 40
80.295692
  1
84
  0
TEXT
  8
1
 62
7
 10
1799.783071
 20
820.514453
 40
80.295692
  1
85
  0
TEXT
  8
1
 62
7
 10
1851.401866
 20
790.712328
 40
80.295692
  1
86
  0
TEXT
  8
1
 62
7
 10
32.016118
 20
1841.135179
 40
80.295692
  1
87
  0
TEXT
  8
1
 62
7
 10
-19.602677
 20
1870.937304
 40
80.295692
  1
88
  0
TEXT
  8
1
 62
7
 10
385.569508
 20
-36.806957
 40
80.295692
  1
89
  0
TEXT
  8
1
 62
7
 10
-1382.197445
 20
983.813769
 40
80.295692
  1
90
  0
TEXT
  8
1
 62
7
 10
1799.783071
 20
779.689624
 40
80.295692
  1
91
  0
TEXT
  8
1
 62
7
 10
32.016118
 20
1800.310350
 40
80.295692
  1
92
  0
TEXT
  8
2
 62
5
 10
50.420481
 20
12.779274
 40
80.295692
  1
1
  0
TEXT
  8
2
 62
5
 10
165.225348
 20
155.598447
 40
80.295692
  1
2
  0
TEXT
  8
2
 62
5
 10
463.486877
 20
526.640825
 40
80.295692
  1
3
  0
TEXT
  8
2
 62
5
 10
656.837484
 20
767.172369
 40
80.295692
  1
4
  0
TEXT
  8
2
 62
5
 10
830.803783
 20
983.589279
 40
80.295692
  1
5
  0
TEXT
  8
2
 62
5
 10
1119.836791
 20
1343.151266
 40
80.295692
  1
6
  0
TEXT
  8
2
 62
5
 10
1270.649056
 20
1530.764320
 40
80.295692
  1
7
  0
TEXT
  8
2
 62
5
 10
1495.555858
 20
1810.552325
 40
80.295692
  1
8
  0
TEXT
  8
2
 62
5
 10
1776.187094
 20
2159.662299
 40
80.295692
  1
9
  0
TEXT
  8
2
 62
5
 10
1876.209081
 20
2284.091091
 40
80.295692
  1
10
  0
TEXT
  8
2
 62
5
 10
252.279880
 20
241.350061
 40
80.295692
  1
11
  0
TEXT
  8
2
 62
5
 10
252.279880
 20
158.686110
 40
80.295692
  1
12
  0
TEXT
  8
2
 62
5
 10
252.279880
 20
92.672362
 40
80.295692
  1
13
  0
TEXT
  8
2
 62
5
 10
252.279880
 20
59.196002
 40
80.295692
  1
14
  0
TEXT
  8
2
 62
5
 10
1666.493443
 20
2000.790334
 40
80.295692
  1
15
  0
TEXT
  8
2
 62
5
 10
1666.493443
 20
1408.538252
 40
80.295692
  1
16
  0
TEXT
  8
2
 62
5
 10
1666.493443
 20
916.517412
 40
80.295692
  1
17
  0
TEXT
  8
2
 62
5
 10
1666.493443
 20
875.692583
 40
80.295692
  1
18
  0
TEXT
  8
2
 62
5
 10
1348.295391
 20
1031.030853
 40
80.295692
  1
19
  0
TEXT
  8
2
 62
5
 10
-515.264944
 20
339.377906
 40
80.295692
  1
20
  0
TEXT
  8
2
 62
5
 10
-400.460077
 20
482.197079
 40
80.295692
  1
21
  0
TEXT
  8
2
 62
5
 10
-102.198548
 20
853.239458
 40
80.295692
  1
22
  0
TEXT
  8
2
 62
5
 10
91.152059
 20
1093.771002
 40
80.295692
  1
23
  0
TEXT
  8
2
 62
5
 10
265.118358
 20
1310.187911
 40
80.295692
  1
24
  0
TEXT
  8
2
 62
5
 10
554.151366
 20
1669.749899
 40
80.295692
  1
25
  0
TEXT
  8
2
 62
5
 10
704.963631
 20
1857.362952
 40
80.295692
  1
26
  0
TEXT
  8
2
 62
5
 10
929.870433
 20
2137.150958
 40
80.295692
  1
27
  0
TEXT
  8
2
 62
5
 10
1210.501669
 20
2486.260932
 40
80.295692
  1
28
  0
TEXT
  8
2
 62
5
 10
1310.523656
 20
2610.689724
 40
80.295692
  1
29
  0
TEXT
  8
2
 62
5
 10
-313.405545
 20
567.948694
 40
80.295692
  1
30
  0
TEXT
  8
2
 62
5
 10
-313.405545
 20
485.284743
 40
80.295692
  1
31
  0
TEXT
  8
2
 62
5
 10
-313.405545
 20
419.270994
 40
80.295692
  1
32
  0
TEXT
  8
2
 62
5
 10
-313.405545
 20
385.794634
 40
80.295692
  1
33
  0
TEXT
  8
2
 62
5
 10
1100.808018
 20
2327.388966
 40
80.295692
  1
34
  0
TEXT
  8
2
 62
5
 10
1100.808018
 20
1735.136884
 40
80.295692
  1
35
  0
TEXT
  8
2
 62
5
 10
1100.808018
 20
1243.116044
 40
80.295692
  1
36
  0
TEXT
  8
2
 62
5
 10
1100.808018
 20
1202.291215
 40
80.295692
  1
37
  0
TEXT
  8
2
 62
5
 10
782.609966
 20
1357.629486
 40
80.295692
  1
38
  0
TEXT
  8
2
 62
5
 10
-885.081791
 20
552.891762
 40
80.295692
  1
39
  0
TEXT
  8
2
 62
5
 10
-770.276924
 20
695.710935
 40
80.295692
  1
40
  0
TEXT
  8
2
 62
5
 10
-472.015394
 20
1066.753314
 40
80.295692
  1
41
  0
TEXT
  8
2
 62
5
 10
-278.664788
 20
1307.284858
 40
80.295692
  1
42
  0
TEXT
  8
2
 62
5
 10
-104.698488
 20
1523.701767
 40
80.295692
  1
43
  0
TEXT
  8
2
 62
5
 10
184.334520
 20
1883.263755
 40
80.295692
  1
44
  0
TEXT
  8
2
 62
5
 10
335.146784
 20
2070.876808
 40
80.295692
  1
45
  0
TEXT
  8
2
 62
5
 10
560.053587
 20
2350.664814
 40
80.295692
  1
46
  0
TEXT
  8
2
 62
5
 10
840.684823
 20
2699.774788
 40
80.295692
  1
47
  0
TEXT
  8
2
 62
5
 10
940.706809
 20
2824.203580
 40
80.295692
  1
48
  0
TEXT
  8
2
 62
5
 10
-683.222391
 20
781.462550
 40
80.295692
  1
49
  0
TEXT
  8
2
 62
5
 10
-683.222391
 20
698.798599
 40
80.295692
  1
50
  0
TEXT
  8
2
 62
5
 10
-683.222391
 20
632.784850
 40
80.295692
  1
51
  0
TEXT
  8
2
 62
5
 10
-683.222391
 20
599.308490
 40
80.295692
  1
52
  0
TEXT
  8
2
 62
5
 10
730.991171
 20
2540.902822
 40
80.295692
  1
53
  0
TEXT
  8
2
 62
5
 10
730.991171
 20
1948.650740
 40
80.295692
  1
54
  0
TEXT
  8
2
 62
5
 10
730.991171
 20
1456.629900
 40
80.295692
  1
55
  0
TEXT
  8
2
 62
5
 10
730.991171
 20
1415.805071
 40
80.295692
  1
56
  0
TEXT
  8
2
 62
5
 10
412.793119
 20
1571.143342
 40
80.295692
  1
57
  0
TEXT
  8
2
 62
5
 10
-1450.767215
 20
879.490394
 40
80.295692
  1
58
  0
TEXT
  8
2
 62
5
 10
-1335.962348
 20
1022.309568
 40
80.295692
  1
59
  0
TEXT
  8
2
 62
5
 10
-1037.700819
 20
1393.351946
 40
80.295692
  1
60
  0
TEXT
  8
2
 62
5
 10
-844.350213
 20
1633.883490
 40
80.295692
  1
61
  0
TEXT
  8
2
 62
5
 10
-670.383913
 20
1850.300400
 40
80.295692
  1
62
  0
TEXT
  8
2
 62
5
 10
-381.350905
 20
2209.862387
 40
80.295692
  1
63
  0
TEXT
  8
2
 62
5
 10
-230.538640
 20
2397.475440
 40
80.295692
  1
64
  0
TEXT
  8
2
 62
5
 10
-5.631838
 20
2677.263446
 40
80.295692
  1
65
  0
TEXT
  8
2
 62
5
 10
274.999398
 20
3026.373420
 40
80.295692
  1
66
  0
TEXT
  8
2
 62
5
 10
375.021384
 20
3150.802212
 40
80.295692
  1
67
  0
TEXT
  8
2
 62
5
 10
-1248.907816
 20
1108.061182
 40
80.295692
  1
68
  0
TEXT
  8
2
 62
5
 10
-1248.907816
 20
1025.397231
 40
80.295692
  1
69
  0
TEXT
  8
2
 62
5
 10
-1248.907816
 20
959.383483
 40
80.295692
  1
70
  0
TEXT
  8
2
 62
5
 10
-1248.907816
 20
925.907123
 40
80.295692
  1
71
  0
TEXT
  8
2
 62
5
 10
165.305746
 20
2867.501454
 40
80.295692
  1
72
  0
TEXT
  8
2
 62
5
 10
165.305746
 20
2275.249372
 40
80.295692
  1
73
  0
TEXT
  8
2
 62
5
 10
165.305746
 20
1783.228533
 40
80.295692
  1
74
  0
TEXT
  8
2
 62
5
 10
165.305746
 20
1742.403704
 40
80.295692
  1
75
  0
TEXT
  8
2
 62
5
 10
-152.892305
 20
1897.741974
 40
80.295692
  1
76
  0
TEXT
  8
2
 62
5
 10
335.488671
 20
174.862949
 40
80.295692
  1
77
  0
TEXT
  8
2
 62
5
 10
-58.847104
 20
402.532814
 40
80.295692
  1
78
  0
TEXT
  8
2
 62
5
 10
-516.804810
 20
666.934820
 40
80.295692
  1
79
  0
TEXT
  8
2
 62
5
 10
-994.349375
 20
942.645303
 40
80.295692
  1
80
  0
TEXT
  8
2
 62
5
 10
-1350.607449
 20
1148.330998
 40
80.295692
  1
81
  0
TEXT
  8
2
 62
5
 10
1749.702233
 20
1934.413081
 40
80.295692
  1
82
  0
TEXT
  8
2
 62
5
 10
1355.366459
 20
2162.082946
 40
80.295692
  1
83
  0
TEXT
  8
2
 62
5
 10
897.408752
 20
2426.484952
 40
80.295692
  1
84
  0
TEXT
  8
2
 62
5
 10
419.864187
 20
2702.195435
 40
80.295692
  1
85
  0
TEXT
  8
2
 62
5
 10
63.606113
 20
2907.881129
 40
80.295692
  1
86
  0
TEXT
  8
2
 62
5
 10
408.797966
 20
-49.540930
 40
80.295692
  1
87
  0
TEXT
  8
2
 62
5
 10
312.260213
 20
6.195168
 40
80.295692
  1
88
  0
TEXT
  8
2
 62
5
 10
-58.847104
 20
220.454077
 40
80.295692
  1
89
  0
TEXT
  8
2
 62
5
 10
-516.804810
 20
484.856082
 40
80.295692
  1
90
  0
TEXT
  8
2
 62
5
 10
-994.349375
 20
760.566565
 40
80.295692
  1
91
  0
TEXT
  8
2
 62
5
 10
-1322.217112
 20
949.861091
 40
80.295692
  1
92
  0
TEXT
  8
2
 62
5
 10
-1410.587782
 20
1000.881921
 40
80.295692
  1
93
  0
TEXT
  8
2
 62
5
 10
385.569508
 20
-58.583630
 40
80.295692
  1
94
  0
TEXT
  8
2
 62
5
 10
-1382.197445
 20
962.037096
 40
80.295692
  1
95
  0
TEXT
  8
2
 62
5
 10
1823.011529
 20
766.955651
 40
80.295692
  1
96
  0
TEXT
  8
2
 62
5
 10
1726.473775
 20
822.691749
 40
80.295692
  1
97
  0
TEXT
  8
2
 62
5
 10
1355.366459
 20
1036.950658
 40
80.295692
  1
98
  0
TEXT
  8
2
 62
5
 10
897.408752
 20
1301.352663
 40
80.295692
  1
99
  0
TEXT
  8
2
 62
5
 10
419.864187
 20
1577.063146
 40
80.295692
  1
100
  0
TEXT
  8
2
 62
5
 10
91.996451
 20
1766.357672
 40
80.295692
  1
101
  0
TEXT
  8
2
 62
5
 10
3.625781
 20
1817.378502
 40
80.295692
  1
102
  0
TEXT
  8
2
 62
5
 10
1799.783071
 20
757.912951
 40
80.295692
  1
103
  0
TEXT
  8
2
 62
5
 10
32.016118
 20
1778.533677
 40
80.295692
  1
104
  0
TEXT
  8
3
 62
6
 10
48.552729
 20
10.455769
 40
80.295692
  1
1
  0
TEXT
  8
3
 62
6
 10
145.879896
 20
131.532374
 40
80.295692
  1
1
  0
TEXT
  8
3
 62
6
 10
425.085605
 20
478.868999
 40
80.295692
  1
1
  0
TEXT
  8
3
 62
6
 10
653.102051
 20
762.525402
 40
80.295692
  1
1
  0
TEXT
  8
3
 62
6
 10
802.229810
 20
948.042815
 40
80.295692
  1
1
  0
TEXT
  8
3
 62
6
 10
1090.664040
 20
1306.859830
 40
80.295692
  1
1
  0
TEXT
  8
3
 62
6
 10
1267.097259
 20
1526.345849
 40
80.295692
  1
1
  0
TEXT
  8
3
 62
6
 10
1457.569728
 20
1763.296892
 40
80.295692
  1
1
  0
TEXT
  8
3
 62
6
 10
1756.242794
 20
2134.851295
 40
80.295692
  1
1
  0
TEXT
  8
3
 62
6
 10
1874.341329
 20
2281.767587
 40
80.295692
  1
1
  0
TEXT
  8
3
 62
6
 10
252.279880
 20
245.449283
 40
80.295692
  1
2
  0
TEXT
  8
3
 62
6
 10
252.279880
 20
170.362012
 40
80.295692
  1
2
  0
TEXT
  8
3
 62
6
 10
252.279880
 20
95.121852
 40
80.295692
  1
2
  0
TEXT
  8
3
 62
6
 10
252.279880
 20
63.278485
 40
80.295692
  1
7
  0
TEXT
  8
3
 62
6
 10
1666.493443
 20
2004.865142
 40
80.295692
  1
3
  0
TEXT
  8
3
 62
6
 10
1666.493443
 20
1512.886515
 40
80.295692
  1
3
  0
TEXT
  8
3
 62
6
 10
1666.493443
 20
920.599895
 40
80.295692
  1
3
  0
TEXT
  8
3
 62
6
 10
1666.493443
 20
879.775066
 40
80.295692
  1
8
  0
TEXT
  8
3
 62
6
 10
1277.584713
 20
1051.488583
 40
80.295692
  1
4
  0
TEXT
  8
3
 62
6
 10
-517.132696
 20
337.054402
 40
80.295692
  1
1
  0
TEXT
  8
3
 62
6
 10
-419.805529
 20
458.131006
 40
80.295692
  1
1
  0
TEXT
  8
3
 62
6
 10
-140.599820
 20
805.467631
 40
80.295692
  1
1
  0
TEXT
  8
3
 62
6
 10
87.416626
 20
1089.124034
 40
80.295692
  1
1
  0
TEXT
  8
3
 62
6
 10
236.544385
 20
1274.641447
 40
80.295692
  1
1
  0
TEXT
  8
3
 62
6
 10
524.978616
 20
1633.458463
 40
80.295692
  1
1
  0
TEXT
  8
3
 62
6
 10
701.411834
 20
1852.944481
 40
80.295692
  1
1
  0
TEXT
  8
3
 62
6
 10
891.884303
 20
2089.895524
 40
80.295692
  1
1
  0
TEXT
  8
3
 62
6
 10
1190.557369
 20
2461.449928
 40
80.295692
  1
1
  0
TEXT
  8
3
 62
6
 10
1308.655904
 20
2608.366219
 40
80.295692
  1
1
  0
TEXT
  8
3
 62
6
 10
-313.405545
 20
572.047915
 40
80.295692
  1
2
  0
TEXT
  8
3
 62
6
 10
-313.405545
 20
496.960644
 40
80.295692
  1
2
  0
TEXT
  8
3
 62
6
 10
-313.405545
 20
421.720484
 40
80.295692
  1
2
  0
TEXT
  8
3
 62
6
 10
-313.405545
 20
389.877117
 40
80.295692
  1
7
  0
TEXT
  8
3
 62
6
 10
1100.808018
 20
2331.463774
 40
80.295692
  1
3
  0
TEXT
  8
3
 62
6
 10
1100.808018
 20
1839.485147
 40
80.295692
  1
3
  0
TEXT
  8
3
 62
6
 10
1100.808018
 20
1247.198527
 40
80.295692
  1
3
  0
TEXT
  8
3
 62
6
 10
1100.808018
 20
1206.373698
 40
80.295692
  1
8
  0
TEXT
  8
3
 62
6
 10
711.899288
 20
1378.087216
 40
80.295692
  1
4
  0
TEXT
  8
3
 62
6
 10
-886.949542
 20
550.568258
 40
80.295692
  1
1
  0
TEXT
  8
3
 62
6
 10
-789.622375
 20
671.644862
 40
80.295692
  1
1
  0
TEXT
  8
3
 62
6
 10
-510.416666
 20
1018.981487
 40
80.295692
  1
1
  0
TEXT
  8
3
 62
6
 10
-282.400221
 20
1302.637890
 40
80.295692
  1
1
  0
TEXT
  8
3
 62
6
 10
-133.272461
 20
1488.155303
 40
80.295692
  1
1
  0
TEXT
  8
3
 62
6
 10
155.161769
 20
1846.972319
 40
80.295692
  1
1
  0
TEXT
  8
3
 62
6
 10
331.594987
 20
2066.458337
 40
80.295692
  1
1
  0
TEXT
  8
3
 62
6
 10
522.067457
 20
2303.409380
 40
80.295692
  1
1
  0
TEXT
  8
3
 62
6
 10
820.740522
 20
2674.963783
 40
80.295692
  1
1
  0
TEXT
  8
3
 62
6
 10
938.839057
 20
2821.880075
 40
80.295692
  1
1
  0
TEXT
  8
3
 62
6
 10
-683.222391
 20
785.561771
 40
80.295692
  1
2
  0
TEXT
  8
3
 62
6
 10
-683.222391
 20
710.474500
 40
80.295692
  1
2
  0
TEXT
  8
3
 62
6
 10
-683.222391
 20
635.234340
 40
80.295692
  1
2
  0
TEXT
  8
3
 62
6
 10
-683.222391
 20
603.390973
 40
80.295692
  1
7
  0
TEXT
  8
3
 62
6
 10
730.991171
 20
2544.977630
 40
80.295692
  1
3
  0
TEXT
  8
3
 62
6
 10
730.991171
 20
2052.999003
 40
80.295692
  1
3
  0
TEXT
  8
3
 62
6
 10
730.991171
 20
1460.712383
 40
80.295692
  1
3
  0
TEXT
  8
3
 62
6
 10
730.991171
 20
1419.887554
 40
80.295692
  1
8
  0
TEXT
  8
3
 62
6
 10
342.082441
 20
1591.601072
 40
80.295692
  1
4
  0
TEXT
  8
3
 62
6
 10
-1452.634967
 20
877.166890
 40
80.295692
  1
1
  0
TEXT
  8
3
 62
6
 10
-1355.307800
 20
998.243494
 40
80.295692
  1
1
  0
TEXT
  8
3
 62
6
 10
-1076.102091
 20
1345.580119
 40
80.295692
  1
1
  0
TEXT
  8
3
 62
6
 10
-848.085646
 20
1629.236522
 40
80.295692
  1
1
  0
TEXT
  8
3
 62
6
 10
-698.957886
 20
1814.753935
 40
80.295692
  1
1
  0
TEXT
  8
3
 62
6
 10
-410.523656
 20
2173.570951
 40
80.295692
  1
1
  0
TEXT
  8
3
 62
6
 10
-234.090438
 20
2393.056969
 40
80.295692
  1
1
  0
TEXT
  8
3
 62
6
 10
-43.617968
 20
2630.008012
 40
80.295692
  1
1
  0
TEXT
  8
3
 62
6
 10
255.055097
 20
3001.562416
 40
80.295692
  1
1
  0
TEXT
  8
3
 62
6
 10
373.153633
 20
3148.478708
 40
80.295692
  1
1
  0
TEXT
  8
3
 62
6
 10
-1248.907816
 20
1112.160403
 40
80.295692
  1
2
  0
TEXT
  8
3
 62
6
 10
-1248.907816
 20
1037.073132
 40
80.295692
  1
2
  0
TEXT
  8
3
 62
6
 10
-1248.907816
 20
961.832972
 40
80.295692
  1
2
  0
TEXT
  8
3
 62
6
 10
-1248.907816
 20
929.989606
 40
80.295692
  1
7
  0
TEXT
  8
3
 62
6
 10
165.305746
 20
2871.576262
 40
80.295692
  1
3
  0
TEXT
  8
3
 62
6
 10
165.305746
 20
2379.597635
 40
80.295692
  1
3
  0
TEXT
  8
3
 62
6
 10
165.305746
 20
1787.311016
 40
80.295692
  1
3
  0
TEXT
  8
3
 62
6
 10
165.305746
 20
1746.486186
 40
80.295692
  1
8
  0
TEXT
  8
3
 62
6
 10
-223.602984
 20
1918.199704
 40
80.295692
  1
4
  0
TEXT
  8
3
 62
6
 10
353.979513
 20
164.187256
 40
80.295692
  1
5
  0
TEXT
  8
3
 62
6
 10
-2.278561
 20
369.872951
 40
80.295692
  1
5
  0
TEXT
  8
3
 62
6
 10
-479.823126
 20
645.583434
 40
80.295692
  1
5
  0
TEXT
  8
3
 62
6
 10
-937.780833
 20
909.985439
 40
80.295692
  1
5
  0
TEXT
  8
3
 62
6
 10
-1332.116607
 20
1137.655305
 40
80.295692
  1
5
  0
TEXT
  8
3
 62
6
 10
1768.193075
 20
1923.737388
 40
80.295692
  1
6
  0
TEXT
  8
3
 62
6
 10
1411.935001
 20
2129.423083
 40
80.295692
  1
6
  0
TEXT
  8
3
 62
6
 10
934.390437
 20
2405.133566
 40
80.295692
  1
6
  0
TEXT
  8
3
 62
6
 10
476.432730
 20
2669.535571
 40
80.295692
  1
6
  0
TEXT
  8
3
 62
6
 10
82.096956
 20
2897.205437
 40
80.295692
  1
6
  0
TEXT
  8
3
 62
6
 10
413.959846
 20
-52.521143
 40
80.295692
  1
7
  0
TEXT
  8
3
 62
6
 10
325.589176
 20
-1.500312
 40
80.295692
  1
7
  0
TEXT
  8
3
 62
6
 10
-2.278561
 20
187.794214
 40
80.295692
  1
7
  0
TEXT
  8
3
 62
6
 10
-479.823126
 20
463.504697
 40
80.295692
  1
7
  0
TEXT
  8
3
 62
6
 10
-937.780833
 20
727.906702
 40
80.295692
  1
7
  0
TEXT
  8
3
 62
6
 10
-1308.888149
 20
942.165611
 40
80.295692
  1
7
  0
TEXT
  8
3
 62
6
 10
-1405.425902
 20
997.901709
 40
80.295692
  1
7
  0
TEXT
  8
3
 62
6
 10
385.569508
 20
-54.501147
 40
80.295692
  1
7
  0
TEXT
  8
3
 62
6
 10
-1382.197445
 20
966.119579
 40
80.295692
  1
7
  0
TEXT
  8
3
 62
6
 10
1828.173408
 20
763.975438
 40
80.295692
  1
8
  0
TEXT
  8
3
 62
6
 10
1739.802738
 20
814.996268
 40
80.295692
  1
8
  0
TEXT
  8
3
 62
6
 10
1411.935001
 20
1004.290794
 40
80.295692
  1
8
  0
TEXT
  8
3
 62
6
 10
934.390437
 20
1280.001277
 40
80.295692
  1
8
  0
TEXT
  8
3
 62
6
 10
476.432730
 20
1544.403283
 40
80.295692
  1
8
  0
TEXT
  8
3
 62
6
 10
105.325413
 20
1758.662192
 40
80.295692
  1
8
  0
TEXT
  8
3
 62
6
 10
8.787660
 20
1814.398290
 40
80.295692
  1
8
  0
TEXT
  8
3
 62
6
 10
1799.783071
 20
761.995434
 40
80.295692
  1
8
  0
TEXT
  8
3
 62
6
 10
32.016118
 20
1782.616160
 40
80.295692
  1
8
  0
ENDSEC
  0
EOF
